top separator

Home

Forum

What's New

Submit a Tab

FAQ

Links

Contact Us

Link to Us

MuSpy.com

MetalTabs.com logo

Bands

0-9

A

B

C

D

E

F

G

H

I

J

K

L

M

N

O

P

Q

R

S

T

U

V

W

X

Y

Z

Search

What

Where
 

Warlock - "Holding Me" Guitar Tab

Plain Text Version
More Warlock Tabs

Hits: 2583
Rated: 5.00 out of 5 (2 votes)
Updated: 2004-11-02 05:53:22

 

By:

Dikkie

sendpm.gif

email.gif

Important note
We did our best to reach Warlock and ask for their permission to publish this tab. Unfortunately they did not respond to our requests or we could not find a way to contact them. This tab is available online until Warlock tells us to take it down.


#----------------------------------PLEASE NOTE---------------------------------#
#This file is the author's own work and represents their interpretation of the #
#song. You may only use this file for private study, scholarship, or research. #
#Unless specified otherwise, this is NOT an official tab from the band members.#
#------------------------------------------------------------------------------#

  Visit MetalTabs.com for more metal tablature
  
Band:  Warlock/Doro
Album: Burning the witches
Song:  Holding Me

Copyright (c)  Phonogram GmbH - 1987
Version 1.0 - 18/05/2004 (updated: 23/10/2004)


Transcribed By: Dirk Desmet, Dikkie
Email:          Brusselswafeltje@hotmail.com
Website:        http://www.moi-tonttu.org


.  - palm mute           /  - slide up to
\  - slide down to       ~  - vibrato
h  - hammer on           b  - Bend
p  - pull off            Suffixes for bend
t  - tap                 f  - full bend    h - half bend
ph - pinched harmonic    q  - quarter bend t - tap bend
*  - see comment         ^  - Hold bend    r release bend
x  - Stuccatto           ~  - vibrato bend
,  - slight palm mute    () - ghost note, sustained note
"  - tremolo note        <> - Trill

Tunning E A D G B E

Intro:
|--------------------|---------------------------------|
|--------------------|---------------------------------|
|----------------7---|----------------7----------------|
|-----5-4---2-55-5---|-----5-4---2-55-5----------------|
|-2-------5----------|-2-------5-----------------------|
|--------------------|---------------------------------|


For the next thing i guess there are 2 guitars because the sound goes
a little higher.
It just sound likes mixed guitar... Or is it only the 2nd guitar part...
I don't know.

Just read it again in the end of the tab: (*)

|------------------------------------|-------------|
|------------------------------------|-------------|
|--------------------------2---4----7|-7-------4---|
|-----5-4---2--2-2h4h5h4-------2-55-5|-5-5^4^0-2---|
|-2-------5------------------5-------|-------------|
|------------------------------------|-------------|

or you can play that last part like this:
|-------------------------------------------------------------------|
|-------------------------------------------------------------------|
|--7--7--(6)---4--7--7--(6)-----------------------------------------|
|--5--5-5p4p0--2--5--5-5p4p0----------------------------------------|
|-------------------------------------------------------------------|
|-------------------------------------------------------------------|

|-------------------------------------------------------------------|
|-------------------------------------------------------------------|
|------7------------------------------------------------------------|
|--7\9-5---7\9---5p4p0----------------------------------------------|
|--5\7-----5\7------------------------------------------------------|
|-------------------------------------------------------------------|


|-------------------------------------------------------------------|
|-------------------------------------------------------------------|
|-----7-6-----7-----------------------------------------------------|
|--7--5-4-7\9-5-------5--------5-------5-------5--------------------|
|--5------5\7---0^5^7----0^5^7---0^5^7---0^5^7----------------------|
|-------------------------------------------------------------------|




I guess this is the main rhytm of the song...
All the rest you have to see yourself with jamming around.






(*)

Guitar 1
|-------------------------------------------------|
|-------------------------------------------------|
|--------------------------2---4----7-------------|
|-----5-4---2--2-2h4h5h4-------2-55-5-------------|
|-2-------5------------------5--------------------|
|-------------------------------------------------|

OR

Guitar 2
|-------------------------------------------------|
|-------------------------------------------------|
|--------------------------2---4----7-------------|
|-----5-4---2--5-5h7h8h7-------2-55-5-------------|
|-2-------5------------------5--------------------|
|-------------------------------------------------|


END

  Visit MetalTabs.com for more metal tablature

bottom separator

Contact Us | Privacy Policy | Disclaimer | Legal Notice
Copyright © 2001-2014 MetalTabs.com. All Rights Reserved.