top separator

Home

Forum

What's New

Submit a Tab

FAQ

Links

Contact Us

Link to Us

MetalTabs.com logo

Bands

0-9

A

B

C

D

E

F

G

H

I

J

K

L

M

N

O

P

Q

R

S

T

U

V

W

X

Y

Z

Search

What

Where
 

Mithotyn - "King of the distant forest" Bass Tab

Plain Text Version
More Mithotyn Tabs

Hits: 2842
Updated: 2004-10-22 16:15:58

 

By:

sendpm.gif

email.gif

Important note
This tab is available online because we obtained explicit permission from Mithotyn or their label.


#----------------------------------PLEASE NOTE---------------------------------#
#This file is the author's own work and represents their interpretation of the #
#song. You may only use this file for private study, scholarship, or research. #
#Unless specified otherwise, this is NOT an official tab from the band members.#
#------------------------------------------------------------------------------#

  Visit MetalTabs.com for more metal tablature
  
Band:  MITHOTYN
Album: King of the Distant Forest
Song:  King of the Distant Forest

Copyright (c)  (invasion/death records) (1998)
Version 1.0 - (DATE)

Transcribed By: Robert C.
Email:          into_Valhalla@yahoo

\  - slide down to
/  - slide up to
"  - tremolo note

D tuning (D,G,C,F)

“F 1”
|------------------------------------------------------------------|
|------------------------------------------------------------------|
|-0000000000000000000000000000000033333333333333337777777777777777-|
|------------------------------------------------------------------|
  “”””””””””””””””””””””””””””””””””””””””””””””””””””””””””””””””
“F 2”
|------------------------------------------------------------------|
|------------------------------------------------------------------|
|-88888888888888885555555555555555----------------7777777777777777-|
|---------------------------------3333333333333333-----------------|
  “”””””””””””””””””””””””””””””””””””””””””””””””””””””””””””””””
“F 3”
|---------------------------------------------------------|
|---------------------------------------------------------|
|-88888888888888885555555555555555------000000----02320-0-|Repeat “F 1” TWICE
|---------------------------------333333------2222--------|then start from “F 2”
  “”””””””””””””””””””””””””””””””””””””””””””””””

|-------------------------------------------------------------------------|
|-----------------------------------------------------9-99-101010-10------|
|-----------5---3---------3-3/444-----------5---3/7-77---------------1010-|
|-5---5---3---1---5---5-----------5---5---3---1---------------------------|(X 2)

|-------------------------------------------------------------------------|
|-----------------------------------------------------9-99-101010-10------|
|-------3---5---3---------3-3/444-----------5---3/7-77---------------1010-|
|-5---5---3---1---5---5-----------5---5---3---1---------------------------|(X 2)

|------------------------------------------------------------------|
|------------------------------------------------------------------|
|-0000000000000000000000000000000033333333333333337777777777777777-|
|------------------------------------------------------------------|(X 2)
  “”””””””””””””””””””””””””””””””””””””””””””””””””””””””””””””””

|------------------------------------------------------------------|
|------------------------------------------------------------------|
|-88888888888888885555555555555555----------------7777777777777777-|
|---------------------------------3333333333333333-----------------|
  “”””””””””””””””””””””””””””””””””””””””””””””””””””””””””””””””

|---------------------------------------------------------|
|---------------------------------------------------------|
|-88888888888888885555555555555555------000000----02320-0-|
|---------------------------------333333------2222--------|
  “”””””””””””””””””””””””””””””””””””””””””””””””

|--------------------------------------------------------------|
|--------------------------------------------------------------|
|-0-----------------7-777-5-55550-----------------7-777-5-5555-|
|-------------3-----------------------------3------------------|

|-------------------------------------------------|
|-------------------------------------------------|
|-------7-----------7-5---------------------8-7-5-|
|-8-7-8---8-7-8-7-8-----8-7-5-7-8-7-5-4-5-7-------|(X 2)

A
|--------------------------------------------------|
|--------------------------------------------------|
|-000000000000888888888888555555555555777777777777-|
|--------------------------------------------------|
      “”””””””””””””””””””””””””””””””””””””””””””””””
B
|------------------------------------------------------|
|------------------------------------------------------|
|-0000000000008888888888885555555555557777888810101010-|
|------------------------------------------------------|
  “”””””””””””””””””””””””””””””””””””””””””””””””””””

C
|--------------------------------------------------|
|--------------------------------------------------|
|-000000000000888888888888555555555555777777777777-|
|--------------------------------------------------|
  “”””””””””””””””””””””””””””””””””””””””””””””””
D
|--------------------------------------------------------|
|--------------------------------------------------------|repeat A,B,C and D
|-0000000000008888888888885555555555557777888810101010-0-|move on to E, pause
|--------------------------------------------------------|for guitar mute thing
“”””””””””””””””””””””””””””””””””””””””””””””””””””””
E
|-------------------------------------------------------------------------|
|-----------------------------------------------------9-99-101010-10------|
|-----------5---3---------3-3/444-----------5---3/7-77---------------1010-|
|-5---5---3---1---5---5-----------5---5---3---1---------------------------|

|-------------------------------------------------------------------------|
|-----------------------------------------------------9-99-101010-10------|
|-------3---5---3---------3-3/444-----------5---3/7-77---------------1010-|
|-5---5---3---1---5---5-----------5---5---3---1---------------------------|


|------------------------------------------------------------------|
|------------------------------------------------------------------|
|-0000000000000000000000000000000033333333333333337777777777777777-|
|------------------------------------------------------------------|(X 2)
    “”””””””””””””””””””””””””””””””””””””””””””””””””””””””””””””””

|------------------------------------------------------------------|
|------------------------------------------------------------------|
|-88888888888888885555555555555555----------------7777777777777777-|
|---------------------------------3333333333333333-----------------|
  “”””””””””””””””””””””””””””””””””””””””””””””””””””””””””””””””

|---------------------------------------------------------|
|---------------------------------------------------------|
|-88888888888888885555555555555555------000000----02320-0-|
|---------------------------------333333------2222--------|
    “”””””””””””””””””””””””””””””””””””””””””””””””

|------------------------------------------------------------------|
|------------------------------------------------------------------|
|-0000000000000000000000000000000033333333333333337777777777777777-|
|------------------------------------------------------------------|(X 2)
    “”””””””””””””””””””””””””””””””””””””””””””””””””””””””””””””””

|------------------------------------------------------------------|
|------------------------------------------------------------------|
|-88888888888888885555555555555555----------------7777777777777777-|
|---------------------------------3333333333333333-----------------|
  “”””””””””””””””””””””””””””””””””””””””””””””””””””””””””””””””

|---------------------------------------------------------|
|---------------------------------------------------------|
|-88888888888888885555555555555555------000000----02320-0-|
|---------------------------------333333------2222--------|
  “”””””””””””””””””””””””””””””””””””””””””””””””

|-------------------------------------------------|
|-------------------------------------------------|
|-------7-----------7-5---------------------8-7-5-|
|-8-7-8---8-7-8-7-8-----8-7-5-7-8-7-5-4-5-7-------|(X 2)

A
|--------------------------------------------------|
|--------------------------------------------------|
|-000000000000888888888888555555555555777777777777-|
|--------------------------------------------------|
     “”””””””””””””””””””””””””””””””””””””””””””””””
B
|------------------------------------------------------|
|------------------------------------------------------|
|-0000000000008888888888885555555555557777888810101010-|
|------------------------------------------------------|
  “”””””””””””””””””””””””””””””””””””””””””””””””””””
C
|--------------------------------------------------|
|--------------------------------------------------|
|-000000000000888888888888555555555555777777777777-|
|--------------------------------------------------|
  “”””””””””””””””””””””””””””””””””””””””””””””””
D
|--------------------------------------------------------|
|--------------------------------------------------------|
|-0000000000008888888888885555555555557777888810101010-0-|
|--------------------------------------------------------|
  “”””””””””””””””””””””””””””””””””””””””””””””””””””
      REPEAT A,B,C AND D AGAIN WHILE WEIRD SOLO COMES IN


         Bass is hard to hear on this part so might not be
Z           exactly right, but its sounds good enough
|------------------------------------------------------------------------------|
|------------------------------------------------------------------------------|
|------------------------------------------------------------------------------|
|-5-55/7\1-1111/10-101010/1212-121210\8\5-558/1313-1313131310-10101010-12-13-15|
	        repeat “Z’”once more and end with open G note

END

  Visit MetalTabs.com for more metal tablature

bottom separator

Contact Us | Privacy Policy | Disclaimer | Legal Notice
Copyright © 2001-2014 MetalTabs.com. All Rights Reserved.