top separator

Home

Forum

What's New

Submit a Tab

FAQ

Links

Contact Us

Link to Us

MuSpy.com

MetalTabs.com logo

Bands

0-9

A

B

C

D

E

F

G

H

I

J

K

L

M

N

O

P

Q

R

S

T

U

V

W

X

Y

Z

Search

What

Where
 

Mithotyn - "Watchmen of the wild" Guitar Tab

Plain Text Version
More Mithotyn Tabs

Hits: 3123
Rated: 4.50 out of 5 (2 votes)
Updated: 2006-06-21 10:18:11

 

By:

Daniil

sendpm.gif

email.gif

Important note
This tab is available online because we obtained explicit permission from Mithotyn or their label.


#----------------------------------PLEASE NOTE---------------------------------#
#This file is the author's own work and represents their interpretation of the #
#song. You may only use this file for private study, scholarship, or research. #
#Unless specified otherwise, this is NOT an official tab from the band members.#
#------------------------------------------------------------------------------#

  Visit MetalTabs.com for more metal tablature
  
MITHOTYN-Watchmen of the Wild
Gathered Around The Oaken Table-1999
Copyright Invasion Records
Transcribed by Daniil Laletin
e-mail: dlaletin@mail.ru
version 1.5 January 2006

All corrections are welcome.

 " - tremolo
 / - slide down
 \ - slide up
 . - palm mute
 ~ - long sound
 x - rest
 p - pull off
 h - hammer on
 tr - trill
 () - ghost note, sustained note
 * - artificial harmonics
 b - bend

 Tuning from low to high: D G C F A D

================================

 Riff 1
|------------------------------------------------|
|------------------------------------------------|
|------------------------------------------------|
|-9-10\9-7-4--5--9-5-2--2--2-4-5-4-5-7-9--10-7-9-|gtr 1
|-7--8\7-5-2--3--7-3-0--0--0-2-3-2-3-5-7---8-5-7-|
|------------------------------------------------|
|
|------------------------------------------------|
|------------------------------------------------|
|------------------------------------------------|
|-9-10\9-7-4--5-/9-5-2--2--2-4-5-4-5-7-9--10-7-9-|gtr 2
|-7--8\7-5-2--3-/7-3-0--0--0-2-3-2-3-5-7---8-5-7-|
|------------------------------------------------|

|----------------------------------------------|
|----------------------------------------------|
|----------------------------------------------|
|-9-10\9-7-4--5--9-5-2-------------------------|gtr 1
|-7--8\7-5-2--3--7-3-0--6--6-7-10-9------------|
|-----------------------4--4-5--8-7--5-5-8-7-5-|
|                                    . . . . .
|----------------------------------------------|
|----------------------------------------------|
|----------------------------------------------|
|-9-10\9-7-4--5-/9-5-2-------------------------|gtr 2
|-7--8\7-5-2--3-/7-3-0--6--6-7-10-9------------|
|-----------------------4--4-5--8-7--5-5-8-7-5-|
                                     . . . . .


 Riff 2
|--------------------------------------|
|--------------------------------------|
|--------------------------------------|
|-7"----9"-10"----9"-7"-9"-------------|gtr 1
|-----------------------------10"-7"---|
|--------------------------------------|
|
|--------------------------------------|
|--------------------------------------|
|--------------------------------------|
|-7"----9"-10"----9"-7"-9"-------------|gtr 2
|-----------------------------10"-7"---|
|--------------------------------------|

|---------------------------------|
|---------------------------------|
|---------------------10-9-7------|
|-7"--9"7"-5"----------------10-9-|gtr 1
|--------------8"-7"--------------|
|---------------------------------|
|
|---------------------------------|
|---------------------------------|
|---------------------------------|
|-7"--9"7"-5"----------7---5---4--|gtr 2
|--------------8"-7"---5---3---2--|
|---------------------------------|

|--------------------------------------|
|--------------------------------------|
|--------------------------------------|
|-7"----9"-10"----9"-7"-9"-------------|gtr 1
|-----------------------------10"-7"---|
|--------------------------------------|
|
|--------------------------------------|
|--------------------------------------|
|--------------------------------------|
|-7"----9"-10"----9"-7"-9"-------------|gtr 2
|-----------------------------10"-7"---|
|--------------------------------------|

|--------------------------------|
|--------------------------------|
|-10--9-7-------7-9--7-----------|
|---------9--10--------10-7--109-|gtr 1
|--------------------------------|
|--------------------------------|
|
|--------------------------------|
|--------------------------------|
|--------------------------------|
|--------------------------------|gtr 2
|-555555----------777777---------|
|-......--777777--......--555555-|
          ......          ......
|--------------------------------------|
|--------------------------------------|
|--------------------------------------|
|-7"----9"-10"----9"-7"-9"-------------|gtr 1
|-----------------------------10"-7"---|
|--------------------------------------|
|
|--------------------------------------|
|--------------------------------------|
|--------------------------------------|
|-7"----9"-10"----9"-7"-9"-------------|gtr 2
|-----------------------------10"-7"---|
|--------------------------------------|

|----------------------------------|
|----------------------------------|
|---------------------10"9"7"------|
|-7"--9"7"-5"----------------10"9"-|gtr 1
|--------------8"-7"---------------|
|----------------------------------|
|
|----------------------------------|
|----------------------------------|
|----------------------------------|
|-7"--9"7"-5"----------7---5---4---|gtr 2
|--------------8"-7"---5---3---2---|
|----------------------------------|

|--------------------------------------------------|
|--------------------------------------------------|
|---------------------------------------10--9-7----|
|-7"----9"-10"----9"-7"-9"----------------------9--|gtr 1
|-----------------------------10"-7"---------------|
|--------------------------------------------------|
|
|--------------------------------------------------|
|--------------------------------------------------|
|--------------------------------------------------|
|-7"----9"-10"----9"-7"-9"-------------------------|gtr 2
|-----------------------------10"-7"----555555-----|
|---------------------------------------......-----|

|----------------9-12-13-9-----------|
|-------------10-----------10--------|
|-----------9-----------------9------|
|-10-9-7-10---------------------10-7-|gtr 1
|------------------------------------|
|------------------------------------|
|
|------------------------------------|
|------------------------------------|
|------------------------------------|
|------------------------------------|gtr 2
|--------------777777----------------|
|-777777-------......-------555555---|
  ......                    ......


 Riff 3
|---------------------------------------------------------|
|---------------------------------------------------------|
|-5~--7-9--7h9p7p5h7~--5-4~---/5-4h5p4p2h4-0-2--2h4h5-4~--|
|---------------------------------------------------------|gtr 1
|---------------------------------------------------------|
|---------------------------------------------------------|
|
|---------------------------------------------------------|
|---------------------------------------------------------|
|---------------------------------------------------------|
|-7~--910---9--7--9------------7--9p7h9p5-------7--5--4---|gtr 2
|----------------------107~----------------8-7--5--3--2---|
|---------------------------------------------------------|

|-------------------------------------------------------------|
|-------------------------------------------------------------|
|-5~--7-9--7h9p7p5h7~--5-7~--9-10--9-7-------7-9--7-----------|
|--------------------------------------9--10--------10-7--109-|gtr 1
|-------------------------------------------------------------|
|-------------------------------------------------------------|
|
|-------------------------------------------------------------|
|-------------------------------------------------------------|
|-------------------------------------------------------------|
|-7~--910---9--7--9----------7---------------9----------------|gtr 2
|----------------------107~--5-5-5---9-------7-7-7---7---5----|
|------------------------------.-.---7-7-7-----.-.---5---3----|
                                     . .
|------------------------------------------------------------|
|------------------------------------------------------------|
|-5~--7-9--7h9p7p5h7~--5-4~---/5-4h5p4p2h4-0-2h4h5-2h4h5-4~--|
|------------------------------------------------------------|gtr 1
|------------------------------------------------------------|
|------------------------------------------------------------|
|
|------------------------------------------------------------|
|------------------------------------------------------------|
|------------------------------------------------------------|
|-7~--910----9--7--9-----------7--9p7h9p5--------7---5---4---|gtr 2
|----------------------107~----------------8--7--5---3---2---|
|------------------------------------------------------------|

|-------------------------------------------------------------|
|-------------------------------------------------------------|
|-5~--7-9--7h9p7p5h7~--5-7~--9-10--9-7-------7-9--7-----------|
|--------------------------------------9--10--------10-7--109-|gtr 1
|-------------------------------------------------------------|
|-------------------------------------------------------------|
|
|-------------------------------------------------------------|
|-------------------------------------------------------------|
|-------------------------------------------------------------|
|-7~--910---9--7--9----------7---------------9----------------|gtr 2
|----------------------107~--5-5-5---9-------7-7-7---7---5----|
|------------------------------.-.---7-7-7-----.-.---5---3----|
                                     . .


 Riff 4                              x 2
|---------------------------------------|
|---------------------------------------|
|---------------------------------------|
|--------------------------------9------|gtr 1
|-7-------5-------7--------10----7---7x-|
|-5-5555--3-3333--5-5555----8--------5x-|
|
|---------------------------------------|
|---------------------------------------|
|---9-7-9------7------------------------|
|-7-------9-10---9-10-7-77-10-9h10p9-7x-|gtr 2
|---------------------------------------|
|---------------------------------------|

|------------------------------------------------|
|------------------------------------------------|
|------------------------------------------------|
|------------------------------------------------|gtr 1
|-2-----------7---------2------------3-2--5--2---|
|-0-----------5---------0------------3-2--5--0---|
|                                    . .  .
|------------------------------------------------|
|------------------------------------------------|
|-----------------------------------------7--9~--|
|-9--10-12-9-10-9h10p9-7-9--10-12-9-10-9---------|gtr 2
|------------------------------------------------|
|------------------------------------------------|

|---------------------------------------|
|---------------------------------------|
|------------------------------------9\-|
|--------------------------------9---7\-|gtr 1
|-7-------5-------7--------10----7------|
|-5-5555--3-3333--5-5555----8-----------|
|
|---------------------------------------|
|---------------------------------------|
|---9-7-9------7------------------------|
|-7-------9-10---9-10-7-77-10-9h10p9-7x-|gtr 2
|---------------------------------------|
|---------------------------------------|


 Riff 5a
|-------------------------------------------------|
|-------------------------------------------------|
|-----------------2454042-----------------5797475-|
|-----2-----------------------2-------------------|gtr 1
|-0000-003002003----------0000-003002003----------|
|-------------------------------------------------|
|
|-------------------------------------------------|
|-------------------------------------------------|
|-------------------------------------------------|
|---------------79109597-----------------79109597-|gtr 2
|-------------------------------------------------|
|-------------------------------------------------|

|-------------------------------------------|
|-------------------------------------------|
|-7--9-10-9-7--5---7-9-7-5----4-5-/9-5-4-x--|
|-.------------.--------------.-------------|gtr 1
|-------------------------------------------|
|-------------------------------------------|
|
|-------------------------------------------|
|-------------------------------------------|
|-------------------------------------------|
|-------3"5"7"--------2"3"5"----------------|gtr 2
|-5"------------3"------------------2"3"5"x-|
|-----------------------------3"------------|


 Riff 5b
|-------------------------------------------------|
|-------------------------------------------------|
|-----------------2454042-----------------5797475-|
|-----2-----------------------2-------------------|gtr 1
|-0000-003002003----------0000-003002003----------|
|-------------------------------------------------|
|
|-------------------------------------------------|
|-------------------------------------------------|
|-------------------------------------------------|
|-----2-----------79109597----2----------79109597-|gtr 2
|-0000-003002003----------0000-003002003----------|
|-------------------------------------------------|

|-----------------------------------------|
|-----------------------------------------|
|-7--9-10-9-7--5---7-9-7-5---4-5-/9-5-4---|
|-.------------.-------------.------------|gtr 1
|-----------------------------------------|
|-----------------------------------------|
|
|-----------------------------------------|
|-----------------------------------------|
|-----------------------------------------|
|-------3"5"7"-------2"3"5"---------------|gtr 2
|-5"-----------3"-----------------2"3"5"--|
|----------------------------3"-----------|

|------------------------|
|---------------------5~-|
|-2h4h5p4-2~--2h4h5p4----|
|------------------------|
|------------------------|
|------------------------|
|
|------------------------|
|------------------------|
|------------------------|
|------------------------|
|-x-------7---x-------9--|
|-x-------5---x-------7--|


 Ending riff
|-/5~----|
|--------|
|--------|
|--------|gtr 1
|--------|
|--------|
|
|--------|
|--------|
|--------|
|--2~----|gtr 2
|--0~----|
|--------|

  Visit MetalTabs.com for more metal tablature

bottom separator

Contact Us | Privacy Policy | Disclaimer | Legal Notice
Copyright © 2001-2014 MetalTabs.com. All Rights Reserved.