top separator

Home

Forum

What's New

Submit a Tab

FAQ

Links

Contact Us

Link to Us

MetalTabs.com logo

Bands

0-9

A

B

C

D

E

F

G

H

I

J

K

L

M

N

O

P

Q

R

S

T

U

V

W

X

Y

Z

Search

What

Where
 

Mithotyn - "The old rover" Guitar Tab

Plain Text Version
More Mithotyn Tabs

Hits: 3950
Rated: 5.00 out of 5 (2 votes)
Updated: 2006-10-31 06:58:07

 

By:

Daniil

sendpm.gif

email.gif

Important note
This tab is available online because we obtained explicit permission from Mithotyn or their label.


#----------------------------------PLEASE NOTE---------------------------------#
#This file is the author's own work and represents their interpretation of the #
#song. You may only use this file for private study, scholarship, or research. #
#Unless specified otherwise, this is NOT an official tab from the band members.#
#------------------------------------------------------------------------------#

  Visit MetalTabs.com for more metal tablature
  
THIS IS UPDATE OF MY PREVIOUS TAB
=================================

MITHOTYN-The Old Rover
Gathered Around The Oaken Table-1999
Copyright Invasion Records
Transcribed by Daniil Laletin
e-mail: dlaletin@mail.ru
version 1.5 June 2006

All corrections are welcome.

 " - tremolo
 / - slide down
 \ - slide up
 . - palm mute
 ~ - long sound
 x - rest
 p - pull off
 h - hammer on
 tr - trill
 () - ghost note, sustained note
 * - artificial harmonics
 b - bend

 Tuning from low to high: D G C F A D

================================

 Piano intro - arranged for two guiars
|------------------------------------------------------|
|-------12-10-8-10-8-7---8-8-10-8-10-12---8-8-7-10-8---|
|---9------------------9-------------------------------|
|-9----------------------------------------------------|gtr 1
|------------------------------------------------------|
|------------------------------------------------------|
|
|------------------------------------------------------|
|------------------------------------------------------|
|-------------------------------------7----------------|
|---9--------------------9----7-------5---9---7----5---|gtr 2
|---7--------------------7----5-----------7---5----3---|
|------------------------------------------------------|

|--------------10------------------------------------------------|
|-12-12-8-8-12----12-12--12-10-7---7-10---10-12-8---8-10-8-7-----|
|--------------------------------7----------------9----------7-9-|
|----------------------------------------------------------------|gtr 1
|----------------------------------------------------------------|
|----------------------------------------------------------------|
|
|----------------------------------------------------------------|
|----------------------------------------------------------------|
|----------------------------------------------------------------|
|------------------------------7--------------9-----9------7---9-|gtr 2
|-----5------------------------5--------------7-----7------5---7-|
|-----3----------------------------------------------------------|



 Riff 1b
|---------------------------------------------------------|
|---------------------------------------------------------|
|---------------------------------------------------------|
|---------------------9----7------------9----7----5-------|both
|-\--2-------2--------7----5----5-------7----5----3-------|
|-\--0-000-0-0-000-00---00---00-3-33-33---77---55-3-33-33-|
       ... .   ... ..   ..   ..   .. ..   ..   ..   .. ..

|----------------------------------------------------------------|
|----------------------------------------------------------------|
|----------------------------------------------------------------|
|-----------------7-------7-------9-------9----7-----------------|both
|-5-------5-------5-------5-------7-------7----5----2-----b--2---|
|-3-33-33-3-33-33-5-55-55-5-55-55-7-77-77---77---55-0-000-3~-0---|
    .. ..   .. ..   .. ..   .. ..   .. ..   ..   ..   ...


 Riff 1b
|---------------------------------------------------------|
|---------------------------------------------------------|
|---------------------------------------------------------|
|-------------------9----7-------------9----7----5--------|both
|-2--------2--------7----5----5--------7----5----3--------|
|-0-000000-0-000000---00---00-3-333333---77---55-3-333333-|
    ......   ......   ..   ..   ......   ..   ..   ......

|----------------------------------------------------------------------|
|----------------------------------------------------------------------|
|----------------------------------------------------------------------|
|-------------------7--------7--------9--------9----7------------------|both
|-5--------5--------5--------5--------7--------7----5----2------b--2---|
|-3-333333-3-333333-5-555555-5-555555-7-777777---77---55-0-0000-3~-0---|
    ......   ......   ......   ......   ......   ..   ..   ....


 Riff 1c
|---------------------------------------------------------|
|---------------------------------------------------------|
|---------------------------------------------------------|
|-------------------9----7-------------9----7----5--------|both
|-2--------2--------7----5----5--------7----5----3--------|
|-0-000000-0-000000---00---00-3-333333---77---55-3-333333-|
    ......   ......   ..   ..   ......   ..   ..   ......

|---------------------------------------------------------------------|
|---------------------------------------------------------------------|
|---------------------------------------------------------------------|
|-------------------7--------7--------9--------9----7-----------------|both
|-5--------5--------5--------5--------7--------7----5----2~----/7~~---|
|-3-333333-3-333333-5-555555-5-555555-7-777777---77---55-0~----(0)----|
    ......   ......   ......   ......   ......   ..   ..


 Riff 2
|-----------------------------------------------------------|
|-----------------------------------------------------------|
|-----------------------------------------------------------|
|-------------------------------------------------2~~~------|gtr 1
|-2--------2--------2--------2--------7~-5~----2~-----------|
|-0-000000-0-000000-0-000000-0-000000-------3~--------------|
|   ......   ......   ......   ......
|-----------------------------------------------------------|
|-----------------------------------------------------------|
|-----------------------------------------------------------|
|-------------------------------------9--7--------9---------|gtr 2
|-2--------2--------2--------2--------7--5--5--9--7-----2-2-|
|-0-000000-0-000000-0-000000-0-000000-------3--7--0-----0-0-|
    ......   ......   ......   ......                   . .



 Riff 3
|--------------------------------------------------------|
|--------------------------------------------------------|
|------------------------------------------------4-6-----|
|----------4-7--------9--7-----4-----7-----4--7--2-4---5-|both
|-2-----7--2-5-2------7--5--5--2--2--5--5--2--5--2-4---5-|
|-0--00-0------0--0-0-------3-----0--5--3--------------3-|
                  . .



 Riff 4
|----------------------------------------------------|
|----------------------------------------------------|
|----------------------------------------------------|
|-------------------4--7-----------9--------7--------|both
|-2--------2--------2--5--2--------7-777777-5-555555-|
|-0-000000-0-000000-------0-000000---......---......-|
    ......   ......         ......

|-------------------------------------------------------|
|-------------------------------------------------------|
|-------------------------------------------------------|
|----------4-----------------7-----------------4--------|both
|-5--------2-222222-2--------5-555555-5--------2-222222-|
|-3-333333---......-0-000000-5-......-3-333333---......-|
    ......            ......            ......

|-----------------------------|
|-----------------------------|
|-----4-----------------------|
|-7---2-----------------------|both
|-5---2-4---5--2~--------(2)--|
|-------2---3--0~--------(0)--|

  Visit MetalTabs.com for more metal tablature

bottom separator

Contact Us | Privacy Policy | Disclaimer | Legal Notice
Copyright © 2001-2014 MetalTabs.com. All Rights Reserved.