top separator

Home

Forum

What's New

Submit a Tab

FAQ

Links

Contact Us

Link to Us

MuSpy.com

MetalTabs.com logo

Bands

0-9

A

B

C

D

E

F

G

H

I

J

K

L

M

N

O

P

Q

R

S

T

U

V

W

X

Y

Z

Search

What

Where
 

Mithotyn - "Chariot of power" Guitar Tab

Plain Text Version
More Mithotyn Tabs

Hits: 3271
Rated: 4.00 out of 5 (1 vote)
Updated: 2006-10-31 06:57:01

 

By:

Daniil

sendpm.gif

email.gif

Important note
This tab is available online because we obtained explicit permission from Mithotyn or their label.


#----------------------------------PLEASE NOTE---------------------------------#
#This file is the author's own work and represents their interpretation of the #
#song. You may only use this file for private study, scholarship, or research. #
#Unless specified otherwise, this is NOT an official tab from the band members.#
#------------------------------------------------------------------------------#

  Visit MetalTabs.com for more metal tablature
  
THIS IS UPDATE OF MY PREVIOUS TAB
=================================

MITHOTYN-Chariot of Power
Gathered Around The Oaken Table-1999
Copyright Invasion Records
Transcribed by Daniil Laletin
e-mail: dlaletin@mail.ru
version 2.0 June 2006

All corrections are welcome.

 " - tremolo
 / - slide down
 \ - slide up
 . - palm mute
 ~ - long sound
 x - rest
 p - pull off
 h - hammer on
 tr - trill
 () - ghost note, sustained note
 * - artificial harmonics
 b - bend

 Tuning from low to high: D G C F A D

================================

 Riff 1a
|----------------------------------------------------|
|----------------------------------------------------|
|------------------------------------------6-7-6-----|
|----9-7--------------------------9-7--5-7-------7-9-|gtr 1
|-7------10-9-10--7---9---5----7---------------------|
|----------------------------------------------------|
|
|----------------------------------------------------|
|----------------------------------------------------|
|----------------------------------------------------|
|----------------------------------------------------|gtr 2
|--------------------------------------7-5---7-----9-|
|-0--7-5---3-2-3--5-2h3h5h7p2--0--7-5--------7-----9-|



 Riff 1b
|-----------------------------------------------------|
|-----------------------------------------------------|
|-------------------------------------------6-7-6-----|
|----9-7------------4h5h7h9p4p0----9-7--5-7-------7-9-|gtr 1
|-7------10-9-10--7-------------7---------------------|
|-----------------------------------------------------|
|
|-----------------------------------------------------|
|-----------------------------------------------------|
|-----------------------------------------------------|
|-----------------------------------------------------|gtr 2
|---------------------------------------7-5---7-----9-|
|-0--7-5---3-2-3--5-2h3h5h7p2---0--7-5--------7-----9-|



 Riff 1c
|-----------------------------------------------------|
|-----------------------------------------------------|
|------------------------------------------6"7"6"-----|
|----9"7"-------------------------9"7"-5"7"------7"9"-|gtr 1
|-7"-----10"9"10"-7"--9"--5"---7"---------------------|
|-----------------------------------------------------|
|
|-----------------------------------------------------|
|-----------------------------------------------------|
|--------------------------------------------9"---11"-|
|--------------------------------------------7"----9"-|gtr 2
|--------------------------------------7"5"--7"----9"-|
|-0"-7"5"--3"2"3"-5"2h3h5h7p2--0"-7"5"----------------|



 Riff 2a
|-----------------------------------------------------|
|-----------------------------------------------------|
|-----------------------------------------------------|
|------------7-9-7---7-9--------------7-9-7-----------|gtr 1
|-2-2-2-2-2--5-7-5-9-5-7---2-2-2-2-2--5-7-5-9-5-7-9---|
|-0-0-0-0-0--------7-------0-0-0-0-0--------7-3-5-7---|
| . . . .                  . . . .
|-----------------------------------------------------|
|-----------------------------------------------------|
|-----------------------------------------------------|
|------------7-9-7---7-9--------------7-9-7-----------|gtr 2
|-2-2-2-2-2--5-7-5-9-5-7---2-2-2-2-2--5-7-5-9-5-7-9---|
|-0-0-0-0-0--------7-------0-0-0-0-0--------7-3-5-7---|
  . . . .                  . . . .

|---------------------------------------------------------|
|---------------------------8--7-5--7~--5--7-10--8--7--8~-|
|---------------------------------------------------------|
|------------7-9-7---7-9----------------------------------|gtr 1
|-2-2-2-2-2--5-7-5-9-5-7----------------------------------|
|-0-0-0-0-0--------7--------------------------------------|
| . . . .
|---------------------------------------------------------|
|---------------------------------------------------------|
|--------------------------12-11-9-11~--9-11-14-12-11-12~-|
|------------7-9-7---7-9----------------------------------|gtr 2
|-2-2-2-2-2--5-7-5-9-5-7----------------------------------|
|-0-0-0-0-0--------7--------------------------------------|
  . . . .

 Riff 2b
|-----------------------------------------------------|
|-----------------------------------------------------|
|-----------------------------------------------------|
|------------7-9-7---7-9--------------7-9-7-----------|gtr 1
|-2-2-2-2-2--5-7-5-9-5-7---2-2-2-2-2--5-7-5-9-5-7-9---|
|-0-0-0-0-0--------7-------0-0-0-0-0--------7-3-5-7---|
| . . . .                  . . . .
|-----------------------------------------------------|
|-----------------------------------------------------|
|------------7-9-7---7-9--------------7-9-7-----------|
|------------------9------------------------9-5-7-9---|gtr 2
|-2-2-2-2-2----------------2-2-2-2-2------------------|
|-0-0-0-0-0----------------0-0-0-0-0------------------|
  . . . .                  . . . .

|---------------------------------------------------------|
|---------------------------8--7-5--7~--5--7-10--8--7--8~-|
|---------------------------------------------------------|
|------------7-9-7---7-9----------------------------------|gtr 1
|-2-2-2-2-2--5-7-5-9-5-7----------------------------------|
|-0-0-0-0-0--------7--------------------------------------|
  . . . .
|---------------------------------------------------------|
|---------------------------------------------------------|
|------------7-9-7---7-9---12-11-9-11~--9-11-14-12-11-12~-|
|------------------9--------------------------------------|gtr 2
|-2-2-2-2-2-----------------------------------------------|
|-0-0-0-0-0-----------------------------------------------|
  . . . .



 Riff 3a                                   1,3
|---------------------------------------------|
|---------------------------------------------|
|---------------------------------------------|
|-----9----10-----9-----10----7h9p7p5-5h7p5p4-|gtr 1
|-7"----7"----7"----7"-----7"-----------------|
|---------------------------------------------|
|
|---------------------------------------------|
|---------------------------------------------|
|---------------------------------------------|
|-----4----5------4-----5-----/9------5-------|gtr 2
|-----2----3------2-----3-----/7------3-------|
|-0"----0"----0"----0"-----0"-----------------|

                                         2
|-----------------------------------------|
|-----------------------------------------|
|-----------------------------------------|
|-----9----10-----9--7------7h9p5---------|gtr 1
|-7"----7"----7"-------10-9--------6-7-9--|
|-----------------------------------------|
|
|-----------------------------------------|
|-----------------------------------------|
|-----------------------------------------|
|-----4----5------------------------------|gtr 2
|-----2----3------7--5--3---5----3h5p3-2--|
|-0"----0"----0"--------------------------|

                                    4
|------------------------------------|
|-8---8-10-12-10-8-7-----7-8-10-8-7--|
|---9------------------7-------------|
|------------------------------------|gtr 1
|------------------------------------|
|------------------------------------|
|
|------------------------------------|
|------------------------------------|
|-9---9-11-12-11-9-7-----7-9-11-9-7--|
|---9------------------9-------------|gtr 2
|------------------------------------|
|------------------------------------|



 Riff 3b                                 1,3
|-------------------------------------------|
|-------------------------------------------|
|-------------------------------------------|
|-----9---10-----9-----10---7h9p7p5-5h7p5p4-|gtr 1
|-7-7---7----7-7---7-7----7-----------------|
|-.-.---.----.-.---.-.----.-----------------|
|
|-------------------------------------------|
|-------------------------------------------|
|-------------------------------------------|
|-----4---5------4-----5----/9------5-------|gtr 2
|-----2---3------2-----3----/7------3-------|
|-0-0---0----0-0---0-0----0-----------------|
  . .   .    . .   . .    .
                                        2
|----------------------------------------|
|----------------------------------------|
|----------------------------------------|
|-----9---10-----9--7------7h9p5---------|gtr 1
|-7-7---7----7-7------10-9--------6-7-9--|
|-.-.---.----.-.-------------------------|
|
|----------------------------------------|
|----------------------------------------|
|----------------------------------------|
|-----4---5------------------------------|gtr 2
|-----2---3------7--5--3---5----3h5p3-2--|
|-0-0---0----0-0-------------------------|
  . .   .    . .
                                    4
|------------------------------------|
|-8---8-10-12-10-8-7-----7-8-10-8-7--|
|---9------------------7-------------|
|------------------------------------|gtr 1
|------------------------------------|
|------------------------------------|
|
|------------------------------------|
|------------------------------------|
|-9---9-11-12-11-9-7-----7-9-11-9-7--|
|---9------------------9-------------|gtr 2
|------------------------------------|
|------------------------------------|



 Riff 4
|----------------------------------------------------|
|----------------------------------------------------|
|-9"----7"-9"-5"----4"-5"-7"----5"-7"-5"----4"-5"-7"-|
|-9"----7"-9"-5"----4"-5"-7"----5"-7"-5"----4"-5"-7"-|gtr 1&2
|-7"----5"-7"-3"----2"-3"-5"----3"-5"-3"----2"-3"-5"-|
|----------------------------------------------------|



 Little solo under riff 4
|----------------------------------------------------|
|----------------------------------------------------|
|----------------------------------------------------|
|-9"----------5"----------7"----------9"----7"-------|gtr 3
|----------------------------------------------------|
|----------------------------------------------------|

|--------------------------------------------------------|
|--------------------------------------------------------|
|-------------------------7"----------9"----12"-11"-9~~--|
|-9"----------5"-----------------------------------------|gtr 3
|--------------------------------------------------------|
|--------------------------------------------------------|




 Before riff 5a, play Riff 3b (fourth part)
 with additional chord
                                       4
|---------------------------------------|
|-8---8-10-12-10-8-7-----7-8-10-8-7-8---|
|---9------------------7----------------|
|---------------------------------------|gtr 1
|---------------------------------------|
|---------------------------------------|
|
|---------------------------------------|
|---------------------------------------|
|-9---9-11-12-11-9-7-----7-9-11-9-7-----|
|---9------------------9----------------|gtr 2
|-----------------------------------2---|
|-----------------------------------0---|


 Riff 5a
|---------------------------------------------------------------------|
|---------------------------------------------------------------------|
|-------------5"9"--------------4"7"---------------454----------------|
|-----5"9"7"------------4"7"5"------------5"7"-4-7----754-------------|gtr 1
|-7"----------------5"----------------3"------------------7h9p7-6h7p6-|
|---------------------------------------------------------------------|
|
|---------------------------------------------------------------------|
|---------------------------------------------------------------------|
|---------------------------------------------------------------------|
|---------5---------7-----------------5----------2--------------------|gtr 2
|-2-------3---------5-------5---------3----------0--------------------|
|-0-------.---------.-------3---------.----------.--------------------|
  .                         .
|-------------------------------------------------------------|
|-------------------------------------------------------------|
|---------------------------------------------7-5-4---4-------|
|-----------------7-9h10p9--------------------------7---7-5-4-|gtr 1
|-7-6-7-9-10-9-10----------9h10p9-7"-5"-----------------------|
|-.-.-.-.-------------------------------8"-7"-----------------|
|
|--------------------------------------------------------------|
|--------------------------------------------------------------|
|--------------------------------------------------------------|
|--------------------------------------------------------------|gtr 2
|-5-4-5-7-9------------------------------------5-3-2-0-2-0-----|
|-3-2-3-5-7------------------------------------------------3-2-|
  . . . . .


 Riff 5b
|---------------------------------------------------------------------|
|---------------------------------------------------------------------|
|---------------5"9"--------------4"7"-------------454----------------|
|------5"9"7"------------4"7"5"------------5"7"-4-7---754-------------|gtr 1
|-7"----------------5"----------------3"------------------7h9p7-6h7p6-|
|---------------------------------------------------------------------|
|
|---------------------------------------------------------------------|
|---------------------------------------------------------------------|
|---------------------------------------------------------------------|
|---------------------------------------------------------------------|gtr 2
|----------3"-------5"----------------3"--------0"-----2"--0"---------|
|-0"-------------------------3"--------------------------------3"--2"-|

|-------------------------------------------------------------|
|-------------------------------------------------------------|
|---------------------------------------------7-5-4---4-------|
|-----------------7-9h10p9--------------------------7---7-5-4-|gtr 1
|-7-6-7-9-10-9-10----------9h10p9-7"-5"-----------------------|
|-.-.-.-.-------------------------------8"-7"-----------------|
|
|-------------------------------------------------------------|
|-------------------------------------------------------------|
|-------------------------------------------------------------|
|---------------------------------2"-0"-----------------------|gtr 2
|-5-4-5-7---9"---7"---5"---4"-----------3"-2"-5-3-2-0-2-0-----|
|-3-2-3-5---7"---5"---3"---2"-----------------------------3-2-|
  . . . .


 Ending riff after Riff 5b
|-----------------10-8-7-5-7-5-----------7---12\--|
|------------------------------8-7---5------------|
|-7-5-4---4---------------------------------------|
|-------7---7-5-4---------------------------------|gtr 1
|-------------------------------------------------|
|-------------------------------------------------|
|
|-------------------------------------------------|
|-------------------------------------------------|
|-------------------------------------------------|
|----------------------------------------4----9---|gtr 2
|-5-3-2-0-2-0------5-3---------------2---2----7---|
|-------------3-2------7-5-7-5-3-2---0---.----0---|
                                     .        .

  Visit MetalTabs.com for more metal tablature

bottom separator

Contact Us | Privacy Policy | Disclaimer | Legal Notice
Copyright © 2001-2014 MetalTabs.com. All Rights Reserved.