top separator

Home

Forum

What's New

Submit a Tab

FAQ

Links

Contact Us

Link to Us

MetalTabs.com logo

Bands

0-9

A

B

C

D

E

F

G

H

I

J

K

L

M

N

O

P

Q

R

S

T

U

V

W

X

Y

Z

Search

What

Where
 

Lake of Tears - "Devil's diner" Guitar Tab

Plain Text Version
More Lake of Tears Tabs

Hits: 3655
Rated: 5.00 out of 5 (1 vote)
Updated: 2005-05-08 08:21:39

 

By:

Daniil

sendpm.gif

email.gif

Important note
This tab is available online because we obtained explicit permission from Lake of Tears or their label.


#----------------------------------PLEASE NOTE---------------------------------#
#This file is the author's own work and represents their interpretation of the #
#song. You may only use this file for private study, scholarship, or research. #
#Unless specified otherwise, this is NOT an official tab from the band members.#
#------------------------------------------------------------------------------#

  Visit MetalTabs.com for more metal tablature
  
LAKE OF TEARS-Devil's Diner
A Crimson Cosmos-1997
Copyright Black Mark Records
Transcribed by Daniil Laletin
e-mail: dlaletin@mail.ru
version 1.0 January 2005

All corrections are welcome.

 " - tremolo
 / - slide down
 \ - slide up
 . - palm mute
 ~ - long sound
 x - rest
 p - pull off
 h - hammer on
 tr - trill
 () - ghost note, sustained note
 * - artificial harmonics
 b - bend

 Tuning from low to high: D G C F A D

================================

All piano\keyborad parts is arranged
for the guitar, and it's sounds very
close to the original sound.

================================

1 = Guitar
2 = Piano or second guitar
3 = Keyboard or third guitar

================================

 Intro
|---------------------------|
|---------------------5-5-5-|
|-9\--0--9-7-5-5--9-7-5-5-5-|
|-------10-9-7-7-10-9-7-7-7-|2
|---------------------------|
|---------------------------|
|
|---------------------------|
|---------------------------|
|---------------------------|
|--------7------------------|1
|--------7------------------|
|--------5------------------|



 Riff 1
|-------------------------------------------------------------------------|
|-------------------------------------------------------------------5-5-5-|
|--9-7-5-5--9-7-5-5--9-7-5-5--9-7-5-5-7-5-4-4-7-5-4-4--9-7-5-5--9-7-5-5-5-|
|-10-9-7-7-10-9-7-7-10-9-7-7-10-9-7-7-9-7-5-5-9-7-5-5-10-9-7-7-10-9-7-7-7-|2
|-------------------------------------------------------------------------|
|-------------------------------------------------------------------------|
|
|-------------------------------------------------------------------------|
|-------------------------------------------------------------------------|
|-------------------------------------------------------------------------|
|--7-----------------7----------------5----------------7------------------|1
|--7-----------------7----------------5----------------7------------------|
|--5-----------------5----------------3----------------5------------------|


 Fill 1
|-----|
|-----|
|-----| After Fill 1,
|-5---| repeat Intro
|-5---|1
|-3---|



 Riff 2a
|----------------------------------------------------------------------------|
|----------------------------------------------------------------------------|
|-9~~----5~~----10~-9~-------------------------------------------------------|
|----------------------7~~---------------9~~-------7~-5~------7~-------------|3
|----------------------------------------------------------------------------|
|----------------------------------------------------------------------------|
|
|----------------------------------------------------------------------------|
|----------------------------------------------------------------------5-5-5-|
|-----------------------9-7-5-5--9-7-5-5-7-5-4-4-7-5-4-4--9-7-5-5--9-7-5-5-5-|
|----------------------10-9-7-7-10-9-7-7-9-7-5-5-9-7-5-5-10-9-7-7-10-9-7-7-7-|2
|----------------------------------------------------------------------------|
|----------------------------------------------------------------------------|
|
|----------------------------------------------------------------------------|
|----------------------------------------------------------------------------|
|-5--------------9-----2-----------------------------------------------------|
|-5--------------9-----2-----------------5----------------7------------------|1
|-3--------------7-----0-----------------5----------------7------------------|
|----------------------------------------3----------------5------------------|



 Riff 3
|----------------------------------------------|
|-6-7-7-8-7-8-7-7-8-7-7-8--5-6-5-6-5-5-6-5-5-6-|
|-5-7-7-7-7-7-7-7-7-7-7-7--5-5-5-5-5-5-5-5-5-5-|
|----------------------------------------------|2
|----------------------------------------------|
|----------------------------------------------|
|
|----------------------------------------------|
|----------------------------------------------|
|---7----------------------5-------------------|
|---7----------------------5-------------------|1
|---5----------------------3-------------------|
|----------------------------------------------|

|----------------------|----------------------|
|----------------------|----------------------|
|-7-7--9-7--9-7-7--9-7-|-7-7--9-7--9-7-7--9-7-|
|-9-9-10-9-10-9-9-10-9-|-9-9-10-9-10-9-9-10-9-|2
|----------------------|----------------------|
|----------------------|----------------------|
|
|----------------------|----------------------|
|----------------------|----------------------|
|----------------------|----------------------|
|-5--------------------|----------------------|1
|-5--------------------|----------------------|
|-3--------------------|----------------------|
                        On second time, don't
                        play this part


 Riff 2b
|----------------------------------------------------------------------------|
|-8~-----5~~----10~-8~-------------------------------------------------------|
|-9~~----5~~----10~-9~-5~~---------------7~~-------5~-4~------5~-------------|
|----------------------7~~---------------9~~-------7~-5~------7~-------------|3
|----------------------------------------------------------------------------|
|----------------------------------------------------------------------------|
|
|----------------------------------------------------------------------------|
|----------------------------------------------------------------------5-5-5-|
|-----------------------9-7-5-5--9-7-5-5-7-5-4-4-7-5-4-4--9-7-5-5--9-7-5-5-5-|
|----------------------10-9-7-7-10-9-7-7-9-7-5-5-9-7-5-5-10-9-7-7-10-9-7-7-7-|2
|----------------------------------------------------------------------------|
|----------------------------------------------------------------------------|
|
|----------------------------------------------------------------------------|
|----------------------------------------------------------------------------|
|-5--------------9-----2-----------------------------------------------------|
|-5--------------9-----2-----------------5----------------7------------------|1
|-3--------------7-----0-----------------5----------------7------------------|
|----------------------------------------3----------------5------------------|




 Outro
|-----------------------------------|
|-----------------------------------|
|-7~~-------5~-4~------5~-----------|
|-9~~-------7~-5~------7~-----------|3
|-----------------------------------|
|-----------------------------------|
|
|-----------------------------------|
|-----------------------------------|
|-7-5-4-4-7-5-4-4--9-7-5-5--9-7-5-5-|
|-9-7-5-5-9-7-5-5-10-9-7-7-10-9-7-7-|2
|-----------------------------------|
|-----------------------------------|
|
|-----------------------------------|
|-----------------------------------|
|-----------------------------------|
|-5----------------7----------------|1
|-5----------------7----------------|
|-3----------------5----------------|

  Visit MetalTabs.com for more metal tablature

bottom separator

Contact Us | Privacy Policy | Disclaimer | Legal Notice
Copyright © 2001-2014 MetalTabs.com. All Rights Reserved.