top separator

Home

Forum

What's New

Submit a Tab

FAQ

Links

Contact Us

Link to Us

MuSpy.com

MetalTabs.com logo

Bands

0-9

A

B

C

D

E

F

G

H

I

J

K

L

M

N

O

P

Q

R

S

T

U

V

W

X

Y

Z

Search

What

Where
 

Prostitute Disfigurement - "She`s Not Coming Home Tonight" Guitar Tab

Plain Text Version
More Prostitute Disfigurement Tabs

Hits: 5511
Rated: 4.33 out of 5 (6 votes)
Updated: 2005-02-08 05:10:42

 

By:

ernia

sendpm.gif

email.gif

Important note
This tab is available online because we obtained explicit permission from Prostitute Disfigurement or their label.


#----------------------------------PLEASE NOTE---------------------------------#
#This file is the author's own work and represents their interpretation of the #
#song. You may only use this file for private study, scholarship, or research. #
#Unless specified otherwise, this is NOT an official tab from the band members.#
#------------------------------------------------------------------------------#

  Visit MetalTabs.com for more metal tablature
  
prostitute disfigurement
deeds of derangements
she's not coming home tonight
Copyright 2003 Morbid Records
Tabbed by ernia(ross) contact me: vexvox@mail.com
version 1.0

tuned to D(dgcfad)

riff 1

c-----------------------------
g-3-6-5-6-8-6-5-3-6-5-6-8-----
d-1-4-3-4-6-4-3-1-4-3-4-6-4ph-
    . . . . . .   . . . .

riff 2(same as riff one except for tremolo picked, no PM,and no ph

riff 3

-------------------------7-7-7-7----------------5ph^4ph-----------------
-3-3-3-3-3-3-3-3-3-3-3-3-5-5-5-5-3-3-3-3-3-3-3-3--------5ph^4ph---------
-1-1-1-1-1-1-1-1-1-1-1-1-5-5-5-5-1-1-1-1-1-1-1-1----------------5ph^4ph-
   . . .   . . .   . . .           . . .   . . .
riff 4

---------------
-3-6-2-5-8-6-8-
-1-4-0-3-6-4-6-
tremolo picked throughout

riff 5(chorus)

-------5-----6-5-----------
-3-5-6-5-6-3-6-5-6-5-2-5-6-
-3-5-6-3-6-3-4-3-6-5-2-5-6-
-1-3-4---4-1-----4-3-0-3-4-
played with tremolo picking and single down strokes

riff 6

-------------
------2-2/5--
-1^4^1-1---4--
tremolo picked throughout

  Visit MetalTabs.com for more metal tablature

bottom separator

Contact Us | Privacy Policy | Disclaimer | Legal Notice
Copyright © 2001-2014 MetalTabs.com. All Rights Reserved.