top separator

Home

Forum

What's New

Submit a Tab

FAQ

Links

Contact Us

Link to Us

MuSpy.com

MetalTabs.com logo

Bands

0-9

A

B

C

D

E

F

G

H

I

J

K

L

M

N

O

P

Q

R

S

T

U

V

W

X

Y

Z

Search

What

Where
 

Absorbed (NL) - "The Christgrinder" Guitar Tab

Plain Text Version
More Absorbed (NL) Tabs

Hits: 1887
Rated: 3.00 out of 5 (2 votes)
Updated: 2004-10-22 16:05:54

 

By:

Zombie Clown

sendpm.gif

email.gif

Important note
This tab is available online because we obtained explicit permission from Absorbed (NL) or their label.


#----------------------------------PLEASE NOTE---------------------------------#
#This file is the author's own work and represents their interpretation of the #
#song. You may only use this file for private study, scholarship, or research. #
#Unless specified otherwise, this is NOT an official tab from the band members.#
#------------------------------------------------------------------------------#

  Visit MetalTabs.com for more metal tablature
  
Band:  Absorbed
Album: Sunset Bleeding
Song:  ChristGrinder

Copyright (c)  (Resurecte Records) (1999)
Version 1.0 - (2004)

Transcribed By: Zombie Clown
Email:          DrumGod666@theflyinglampshades.com


.  - palm mute           /  - slide up to
\  - slide down to       ~  - vibrato
h  - hammer on           b  - Bend
p  - pull off            Suffixes for bend
t  - tap                 f  - full bend    h - half bend
ph - pinched harmonic    q  - quarter bend t - tap bend
*  - see comment         ^  - Hold bend    r release bend
x  - Stuccatto           ~  - vibrato bend
,  - slight palm mute    () - ghost note, sustained note
"  - tremolo note        <> - Trill

Tunning E A D G B E

intro/verse 1

voice clip
                                  first time  second time
|-------------------------------:||---------|-------------|
|-------------------------------:||---------|-------------|
|-------------------------------:||---------|-------------|
|-------------------------------:||---------|-------------|
|-------------------------------:||-1--1----|-3--3--------|
|-0-0-0-0-0-0-0-0-1-0-0-0-0-0-2-:||-1--1----|-3--3--------|

fill 1

|---------------------------------------------------------------------------|
|---------------------------------------------------------------------------|
|---------------------------------------------------------------------------|
|---------------------------------------------------------------------------|
|---------------------------------------------------------------------------|
|-5-5-5-5-5-9-9-9-9-8-8-8-8-7-7-7-7-4-4-4-4-4-4-8-8-8-8-8-7-7-7-7-6-6-6-6-6-|

|--------------------------------------------|
|--------------------------------------------|
|--------------------------------------------|
|-7-7-7-7-7-11-11-11-11-10-10-10-10-9-9-9-9--|
|--------------------------------------------|
|-5-5-5-5-5-9--9--9--9--8--8--8--8--7-7-7-7--|

|-----------------------------------------------|
|-----------------------------------------------|
|-----------------------------------------------|
|6-6-6-6-6-6-10-10-10-10-10-9-9-9-9-8-8-8-8-8---|
|-----------------------------------------------|
|4-4-4-4-4-4-8--8--8--8--8--7-7-7-7-6-6-6-6-6---|

verse 2

|-------------|---------------|
|-------------|---------------|
|-------------|---------------|
|-------------|---------------|
|-----------1-|-------------1-|
|-2-1-1-2-2-1-|-2-1-1-2-2-3-1-|
  . . . . .     . . . . . .

minisolo (rhythym)

|---------|
|---------|
|---------|
|---------|
|-11-4-10-|
|-9--2-8--|

minisolo

|----------|-\-|-----------------|----------------|-\-|
|-10-------|-\-|-----------------|----------------|-\-|
|-12bf---r-|-\-|-----------------|----------------|-\-|
|----------|-\-|-----------------|----------------|-\-|
|----------|-\-|-4------2bh-r--3-|-4------2phbh-r-|-\-|
|----------|-\-|-----2-----------|-----2----------|-\-|

verse three

|----------------------------------------------------|
|----------------------------------------------------|
|----------------------------------------------------|
|----------------------------------------------------|
|-11-11-11-11-11-11-14-14-14-14-14-14-14-9-9-9-9-9-9-|
|-9--9--9--9--9--9--12-12-12-12-12-12-12-7-7-7-7-7-7-|

solo

rhythm, same as intro/verse 1

solo
                play this about 3x  first  second
|-------|-------||:-12p10-------:||-12bf-|-12-10------------------|
|-11----|-12-12-||:--------12bf-:||------|--------14-12-10--------|
|-12bf--|-------||:-------------:||------|------------------12-10-|
|-------|-------||:-------------:||------|------------------------|
|-------|-------||:-------------:||------|------------------------|
|-------|-------||:-------------:||------|------------------------|

||:-------------:||----------------------------------||:-21bf-:||
||:-------------:||----------------------------------||:-20bf-:||
||:-12p10--12bf-:||-12p10--12bf-r-12--10-------------||:------:||
||:-------------:||-----------------------12--10-----||:------:||
||:-------------:||-------------------------------12-||:------:||
||:-------------:||----------------------------------||:------:||

||:------------------:||:-15p12------:||-15bf^^^-|
||:------------------:||:-------13bf-:||---------|
||:-/-14-14-14-14-12-:||:------------:||---------|
||:------------------:||:------------:||---------|
||:------------------:||:------------:||---------|
||:------------------:||:------------:||---------|

then play fill 1
and voila!

  Visit MetalTabs.com for more metal tablature

bottom separator

Contact Us | Privacy Policy | Disclaimer | Legal Notice
Copyright © 2001-2014 MetalTabs.com. All Rights Reserved.