top separator

Home

Forum

What's New

Submit a Tab

FAQ

Links

Contact Us

Link to Us

MuSpy.com

MetalTabs.com logo

Bands

0-9

A

B

C

D

E

F

G

H

I

J

K

L

M

N

O

P

Q

R

S

T

U

V

W

X

Y

Z

Search

What

Where
 

Summoning - "Ashen Cold" Guitar Tab

Plain Text Version
More Summoning Tabs

Hits: 6050
Rated: 4.00 out of 5 (4 votes)
Updated: 2009-02-17 07:08:18

 

By:

ChristBurner

sendpm.gif

email.gif

Important note
This tab is available online because we obtained explicit permission from Summoning or their label.


#----------------------------------PLEASE NOTE---------------------------------#
#This file is the author's own work and represents their interpretation of the #
#song. You may only use this file for private study, scholarship, or research. #
#Unless specified otherwise, this is NOT an official tab from the band members.#
#------------------------------------------------------------------------------#

  Visit MetalTabs.com for more metal tablature
  
Band:Summoning
Album:Let Mortal Heros Sing Your Fame
Song:Ashen Cold
    Copyright-(Napalm) (2002)
    Version 1.0 10-15-'04

Transcribed by:ChristBurner
Email:ChristBurner@yahoo.com

        nobody has this tab so i decided to do it my self.or at least try to.
                    Its my first net tab so here it goes

  Tunning  E A D G B e

    part one    play both parts as a whole  4x
|-----------------------------------------------------------------------------|
|-----------------------------------------------------------------------------|
|---------------------3---- 2-------------------------------3-----------------|
|5-----3---5-------5---------------3-5--5----------------5-----5---3---5---6--|
|---6-----------6--------6----6------------3-3--3--3--3-----------------------|
|-----------------------------------------------------------------------------|


|-----------------------------------------------------------------------------|
|-----------------------------------------------------------------------------|
|---------------------5----3-------------------------------3------------------|
|5------3---5------5--------------3-5--5----------------5------5---3---5---6--|
|---6-----------6-------6----6------------3--3--3--3--3-----------------------|
|-----------------------------------------------------------------------------|

        part two   2x

|--------tremolo pick------------------------|
|--------------------------------------------|
|--------------------------------------------|
|--------------------------------------------|
|------------------------6-------------------|
|--------------4----6---------4----8---6---3-|


        part three  2x

|---------------------------------------------------------------------|
|---------------tremolo picking---------------------------------------|
|---------------------7---5-------------------------------------------|
|------------6---8-----------6--8---3--5------------------------------|
|---------------------5---3-------------------------------------------|
|------------4---6-----------4--6---1--3------------------------------|

  If you know anything about this band its that there guitar is almost secondary
  to the rest of the music. These guys use a ton of synth. So if it sounds
  empty, thats why. Play along with the song and it should sound fine...I hope
       Let Mortal Heroes Sing Your Fame is the most amazing metal album overall
  By one of the worlds best metal duo. If you dont own this album then you
  obviously know nothing.

  Visit MetalTabs.com for more metal tablature

bottom separator

Contact Us | Privacy Policy | Disclaimer | Legal Notice
Copyright © 2001-2014 MetalTabs.com. All Rights Reserved.