top separator

Home

Forum

What's New

Submit a Tab

FAQ

Links

Contact Us

Link to Us

MuSpy.com

MetalTabs.com logo

Bands

0-9

A

B

C

D

E

F

G

H

I

J

K

L

M

N

O

P

Q

R

S

T

U

V

W

X

Y

Z

Search

What

Where
 

Darkthrone - "I en Hall Med Flesk og Mjod" Guitar Tab

Plain Text Version
More Darkthrone Tabs

Hits: 3207
Rated: 3.67 out of 5 (3 votes)
Updated: 2004-11-08 18:06:04

 

By:

sendpm.gif

email.gif

Important note
This tab is available online because we obtained explicit permission from Darkthrone or their label.


#----------------------------------PLEASE NOTE---------------------------------#
#This file is the author's own work and represents their interpretation of the #
#song. You may only use this file for private study, scholarship, or research. #
#Unless specified otherwise, this is NOT an official tab from the band members.#
#------------------------------------------------------------------------------#

  Visit MetalTabs.com for more metal tablature
  
Tab Author: Dark_Throne
Type of the tab: G
Band: Dark Throne
Album: Transilvanian Hunger
Song: I en Hall Med Flesk og Mjod
e-mail: Psycho_dB@gmx.de

e |-----------|
H |-----------|
G |-----------|
D |-0-------0-| 4x
A |-5--8-6--5-|
E |-3--6-4--3-|


e |---------------------------------|--------------------------------|
H |---------------------------------|--------------------------------|
G |---------------------------------|--------------------------------|
D |---------------------------------|--------------------------------| 4x
A |-4-4-4-4/5/4-4-4-4-1-1-1-1-2-2-2-|-4-4-4-5p-4-4-4-4-1-1-1-1-2-2-2-|
E |-2-2-2-2/3/2-2-2-2-1-1-1-1-2-2-2-|-2-2-2-3p-2-2-2-2-1-1-1-1-2-2-2-|


e |-----------|
H |-----------|
G |-----------|
D |-0-------0-| 4x
A |-5--8-6--5-|
E |-3--6-4--3-|


e |---------------------------------|--------------------------------|
H |---------------------------------|--------------------------------|
G |---------------------------------|--------------------------------|
D |---------------------------------|--------------------------------| 4x
A |-4-4-4-4/5/4-4-4-4-1-1-1-1-2-2-2-|-4-4-4-5p-4-4-4-4-1-1-1-1-2-2-2-|
E |-2-2-2-2/3/2-2-2-2-1-1-1-1-2-2-2-|-2-2-2-3p-2-2-2-2-1-1-1-1-2-2-2-|


e |-----------------------|
H |-----------------------|
G |-----------------------|
D |-7--12-11-7-11-10-6--7-| 8x
A |-7--12-11-7-11-10-6--7-|
E |-5--10--9-5--9--8-4--5-|


e |-----------|
H |-----------|
G |-----------|
D |-0-------0-| 4x
A |-5--8-6--5-|
E |-3--6-4--3-|


e |------------|
H |------------|
G |------------|(end tune)
D |-0----------|
A |-5--8/6-----|
E |-3--6/4--3p-|

the end....
Listen to the song to find out how long you'll have to play each note.

I would be pleased if you could e-mail me what you liked or didn't like on this
tab. Or if you see any mistakes then also e-mail me.

Thanks!
I'm already looking forward to your e-mail!

  Visit MetalTabs.com for more metal tablature

bottom separator

Contact Us | Privacy Policy | Disclaimer | Legal Notice
Copyright © 2001-2014 MetalTabs.com. All Rights Reserved.