top separator

Home

Forum

What's New

Submit a Tab

FAQ

Links

Contact Us

Link to Us

MuSpy.com

MetalTabs.com logo

Bands

0-9

A

B

C

D

E

F

G

H

I

J

K

L

M

N

O

P

Q

R

S

T

U

V

W

X

Y

Z

Search

What

Where
 

Aria (RU) - "Antichrist" Guitar Tab

Plain Text Version
More Aria (RU) Tabs

Hits: 2722
Rated: 4.33 out of 5 (6 votes)
Updated: 2004-10-16 16:13:35

 

By:

Russian Bull

sendpm.gif

email.gif

Important note
This tab is available online because we obtained explicit permission from Aria (RU) or their label.


#----------------------------------PLEASE NOTE---------------------------------#
#This file is the author's own work and represents their interpretation of the #
#song. You may only use this file for private study, scholarship, or research. #
#Unless specified otherwise, this is NOT an official tab from the band members.#
#------------------------------------------------------------------------------#

  Visit MetalTabs.com for more metal tablature
  
Band:  Aria
Album: Blood for blood
Song:  Antichrist

Copyright (c)  2004
Version 1.0 - 10.10/2004

Transcribed By: Russian Bull
Email:          cleanhip@mail.ru


.  - palm mute           /  - slide up to
\  - slide down to       ~  - vibrato
h  - hammer on           b  - Bend
p  - pull off            Suffixes for bend
t  - tap                 f  - full bend    h - half bend
ph - pinched harmonic    q  - quarter bend t - tap bend
*  - see comment         ^  - Hold bend    r release bend
x  - Stuccatto           ~  - vibrato bend
,  - slight palm mute    () - ghost note, sustained note
"  - tremolo note        <> - Trill

Tunning E A D G B E

|--------------------------------------|
|--------------------------------------|
|--------0--------0--------0--------0--|
|-----4--------4--------4--------4-----|-----|
|--2--------2--------2--------2--------|     |
|--------------------------------------|     |
|--------------------------------------|     |6x
|--------------------------------------|     |
|--------0--------0--------0--------0--|     |
|-----4--------4--------4--------4-----|-----|
|--3--------3--------3--------3--------|
|--------------------------------------|

------------------------------------------|
------------------------------------------|
--4--4--4-------------4--4--4-------------|
--4--4--4-------------4--4--4-------------|
--2--2--2----3-2------2--2--2----3-2------|
-----------------3-2-----------------3-2--|



-------------------------------------------|
-------------------------------------------|
--5--5--5-----------------0------0------0--|
--5--5--5-----------------2------2------2--|
--3--3--3----3-2------3-3-3--3-3-3--3-3-3--|
-----------------3-2-----------------------|



------------------------------------------|
------------------------------------------|
--4--4--4-------------4--4--4-------------|
--4--4--4-------------4--4--4-------------|
--2--2--2----3-2------2--2--2----3-2------|
-----------------3-2-----------------3-2--|



-------------------------------------------|
-------------------------------------------|
--5--5--5-----------------0------0------0--|
--5--5--5-----------------2------2------2--|
--3--3--3----3-2------3-3-3--3-3-3--3-3-3--|
-----------------3-2-----------------------|



------------------------------------------|
------------------------------------------|
--4--4--4-------------4--4--4-------------|
--4--4--4-------------4--4--4-------------|
--2--2--2----3-2------2--2--2----3-2------|
-----------------3-2-----------------3-2--|



-------------------------------------------|
-------------------------------------------|
--5--5--5-----------------0------0------0--|
--5--5--5-----------------2------2------2--|
--3--3--3----3-2------3-3-3--3-3-3--3-3-3--|
-----------------3-2-----------------------|



------------------------------------------|
------------------------------------------|
--4--4--4-------------4--4--4-------------|
--4--4--4-------------4--4--4-------------|
--2--2--2----3-2------2--2--2----3-2------|
-----------------3-2-----------------3-2--|



-------------------------------------------|
-------------------------------------------|
--5--5--5-----------------0------0------0--|
--5--5--5-----------------2------2------2--|
--3--3--3----3-2------3-3-3--3-3-3--3-3-3--|
-----------------3-2-----------------------|



--------------------------------------|
--------------------------------------|
--------------------------------------|
--------------------------------------|
-----2--------4--------5--------4-----|
--3-----3--5-----5--7-----7--5-----5--|



------------------------------------------|
------------------------------------------|
--4--4--4-------------4--4--4-------------|
--4--4--4-------------4--4--4-------------|
--2--2--2----3-2------2--2--2----3-2------|
-----------------3-2-----------------3-2--|



--------------------------------------|---------------------------|
--------------------------------------|---------------------------|
--------------------------------------|---------------------------|
--------------------------------------|--4------------------------|
-----2--------4--------5--------4-----|--2------------------------|
--3-----3--5-----5--7-----7--5-----5--|---------------------------|

--------------------------|--------------------------------------|
--------------------------|--------------------------------------|
--------------------------|--------------------------------------|
--------------------------|--4-----------------5-----------------|
--------------------------|-----5--4-----4--5-----5--4-----4--5--|
--------------------------|-----------7-----------------7--------|



--------------------------------------|--------------------------------------|
--------------------------------------|--------------------------------------|
--------------------------------------|--------------------------------------|
--7-----------------5-----------------|--4-----------------5-----------------|
-----5--4-----4--5-----5--4-----4--5--|-----5--4-----4--5-----5--4-----4--5--|
-----------7-----------------7--------|-----------7-----------------7--------|



--------------------------------------|--------------------------------------|
--------------------------------------|--------------------------------------|
--------------------------------------|--------------------------------------|
--7-----------------5-----------------|--7-----------------5--4--------------|
-----5--4-----4--5-----5--4-----4--5--|-----5--4-----4--5--------7-----7--9--|
-----------7-----------------7--------|-----------7-----------------7--------|



--------------------------------------|--------------------------------------|
--------------------------------------|--------------------------------------|
--------------------------------------|--------------------------------------|
--7-----------------5--4--------------|--7-----------------5--4--------------|
-----5--4-----4--5--------7-----7--9--|-----5--4-----4--5--------7-----7--9--|
-----------7-----------------7--------|-----------7-----------------7--------|



--------------------------------------|--------------------------------------|
--------------------------------------|--------------------------------------|
--------------------------------------|--------------------------------------|
--7-----------------5--4--------------|--4-----------------5-----------------|
-----5--4-----4--5--------7-----7--9--|-----5--4-----4--5-----5--4-----4--5--|
-----------7-----------------7--------|-----------7-----------------7--------|



--------------------------------------|--------------------------------------|
--------------------------------------|--------------------------------------|
--------------------------------------|--------------------------------------|
--7-----------------5-----------------|--4-----------------5-----------------|
-----5--4-----4--5-----5--4-----4--5--|-----5--4-----4--5-----5--4-----4--5--|
-----------7-----------------7--------|-----------7-----------------7--------|



--------------------------------------|--------------------------------------|
--------------------------------------|--------------------------------------|
--------------------------------------|--------------------------------------|
--7-----------------5-----------------|--7-----------------5-----------------|
-----5--4-----4--5-----5--4-----4--5--|-----5--4--4--4--4-----5--4--4--4--4--|
-----------7-----------------7--------|--------------------------------------|



--------------------------------------|--------------------------------------|
--------------------------------------|--2--0--0--0--0--0--3--0--0--0--0--0--|
--------------------------------------|--------------------------------------|
--7-----------------5-----------------|--------------------------------------|
-----5--4--4--4--4-----5--4--4--4--4--|--------------------------------------|
--------------------------------------|--------------------------------------|



--------------------------------------|----------------------------|
--5--0--0--0--0--0--7--0--0--0--0--0--|--7r-----------5r-----------|
--------------------------------------|----------------------------|
--------------------------------------|----------------------------|
--------------------------------------|----------------------------|
--------------------------------------|----------------------------|



--------------------7--5-----|--5b-----------------------|
--------------------------7--|---------------------------|
-----------------------------|---------------------------|
-----------------------------|---------------------------|
-----------------------------|---------------------------|
-----------------------------|---------------------------|



--7--7-----9--------10--------12------|--12b---------------10----9----|
--------7-----------------------------|-------------------------------|
--------------------------------------|-------------------------------|
--------------9--9------9--9----------|-------------------------------|
--------------------------------------|-------------------------------|
--------------------------------------|-------------------------------|



--10----9-10-9--7----9~-----------|
----------------------------------|
----------------------------------|
----------------------------------|
----------------------------------|
----------------------------------|



--14--10--------------9--12--9--------------10--|
----------12--11--12------------11--10--12------|
------------------------------------------------|
------------------------------------------------|
------------------------------------------------|
------------------------------------------------|



--14--10--------------9--12~-----------|--------------------19------19--|
----------12--11--12-------------------|------------------------20------|
---------------------------------------|--------------------------------|
---------------------------------------|--------------------------------|
---------------------------------------|--------------------------------|
---------------------------------------|--------------------------------|



------19------19------19------19------19--------|
--19------20------19------17--------------------|
----------------------------------19------18----|
------------------------------------------------|
------------------------------------------------|
------------------------------------------------|



----------------------------------------------|
----------------------------------------------|
--16------16--14--12------12--16--------------|
----------------------16----------16--14--11--|
----------------------------------------------|
----------------------------------------------|



--------------------------------------|--------------------------------|
--7--------8--------7--------6--------|--2--------------2--------------|
-----7--------7--------7--------7-----|-------2--------------2---------|
--------9--------9--------9--------9--|------------4--------------4----|
--------------------------------------|--------------------------------|
--------------------------------------|--------------------------------|



---------------------------------|-----------------------------3--------|
--2--------2--------2------------|--2--3--5--6--5--3--2--3--5-----6--5--|
-----2--------2------------------|--------------------------------------|
--------4--------4---------------|--------------------------------------|
---------------------------------|--------------------------------------|
---------------------------------|--------------------------------------|



-----3--5-6-7--6--5--3-5---3---------|-----------3-----------------3--5--6--|
--6-----------------------------5----|--3--5--6-----6--5--3--5--6-----------|
-------------------------------------|--------------------------------------|
-------------------------------------|--------------------------------------|
-------------------------------------|--------------------------------------|
-------------------------------------|--------------------------------------|



--8--6--5-----6--5--------------------|--------------------------------------|
-----------8--------8--6--5--3--6--5--|--3--------------2--3--2--------2-----|
--------------------------------------|-----6--3--2--3-----------3--2-----3--|
--------------------------------------|--------------------------------------|
--------------------------------------|--------------------------------------|
--------------------------------------|--------------------------------------|



---------------------------------|-----------3---------------7------|
---------------------------------|-----0--3--3------------0--8------|
--2--0---------------------------|--0------------------0------------|
--------3--2--0------------------|------------------0---------------|
-----------------3--0------------|----------------------------------|
---------------------------------|----------------------------------|



--------7--19------------------|
-----8-----20------------------|
--7----------------------------|
-------------------------------|
-------------------------------|
-------------------------------|



--------------------------------------------------|
--------------17--15------------------------------|
----------16----------17--16--14--13--------------|
--14--18------------------------------15--14--12--|
--------------------------------------------------|
--------------------------------------------------|



-------------------------------------|--5--6-----5--------------------------|
-------------------------------------|--------8-----6--8--5--6-----5--6--8--|
-------------------------------------|--------------------------7-----------|
--10--9--7--6------------------------|--------------------------------------|
---------------8--7------------------|--------------------------------------|
---------------------8--7--5--7~-----|--------------------------------------|



--5--6-----5--------------------------|-----------------------------------|
--------8-----6--8--5--6-----5--6--8--|--5--6-----5-----------------------|
--------------------------7-----------|--------7-----5--7--4--5-----------|
--------------------------------------|--------------------------7--------|
--------------------------------------|-----------------------------------|
--------------------------------------|-----------------------------------|



------------------12-13-15-13-12-13-12------------------------|
---------12-13-15----------------------15-13------------------|
------14-------------------------------------14-12------------|
--12-----------------------------------------------14-12------|
--------------------------------------------------------------|
--------------------------------------------------------------|



------------------------------|---------------------------|
------------------------------|--8------------------------|
-------7---------7------------|--7------------------------|
--9---------9-----------------|---------------------------|
------------------------------|---------------------------|
------------------------------|---------------------------|



----------------------------------------|----1-------1--0------------10--------|
----6-------6--5-------4-------4--3-----|--3---3--1--------1--1-4--------------|
--7---7--6--------6--5---5--3--------3--|-------------------------3------------|
----------------------------------------|--------------------------------------|
----------------------------------------|--------------------------------------|
----------------------------------------|--------------------------------------|



--------------------------------------|--------------------------------------|
--------------------------------------|--------------------------------------|
--------------------------------------|--------------------------------------|
--------------------------------------|--6--6-----5--------4--4-----3--------|
--2--4--5--2--4--5--2--4--5--2--4--5--|--------7-----6--6--------5-----4--4--|
--------------------------------------|--------------------------------------|



--------------------------------------|--------------------------------------|
--------------------------------------|--------------------------------------|
--------------------------------------|--------------------------------------|
--------------------------------------|--6--6-----5--------4--4-----3--------|
--2--4--5--2--4--5--2--4--5--2--4--5--|--------7-----6--6--------5-----4--4--|
--------------------------------------|--------------------------------------|



--------------------------------------|--------------------------------------|
--------------------------------------|--------------------------------------|
--------------------------------------|--------------------------------------|
--4--6--7--4--6--7--4--6--7--4--6--7--|--6--6-----5--------4--4-----3--------|
--------------------------------------|--------7-----6--6--------5-----4--4--|
--------------------------------------|--------------------------------------|



--------------------------------------|--------------------------------------|
--------------------------------------|--------------------------------------|
--------------------------------------|--------------------------------------|
--4--6--7--4--6--7--4--6--7--4--6--7--|--6--6-----5--------4--4-----3--------|
--------------------------------------|--------7-----6--6--------5-----4--4--|
--------------------------------------|--------------------------------------|



----------------------------|---------------------------|
----------------------------|---------------------------|
--4----4--------------------|--5------------------------|
--4----4--------------------|--5------------------------|
--2----2--------------------|--3------------------------|
----------------------------|---------------------------|



----------------------------|---------------------------|
----------------------------|---------------------------|
--4----4--------------------|--5------------------------|
--4----4--------------------|--5------------------------|
--2----2--------------------|--3------------------------|
----------------------------|---------------------------|
|

END

  Visit MetalTabs.com for more metal tablature

bottom separator

Contact Us | Privacy Policy | Disclaimer | Legal Notice
Copyright © 2001-2014 MetalTabs.com. All Rights Reserved.