top separator

Home

Forum

What's New

Submit a Tab

FAQ

Links

Contact Us

Link to Us

MetalTabs.com logo

Bands

0-9

A

B

C

D

E

F

G

H

I

J

K

L

M

N

O

P

Q

R

S

T

U

V

W

X

Y

Z

Search

What

Where
 

Bombarder - "Glasnik smrti" Guitar Tab

Plain Text Version
More Bombarder Tabs

Hits: 2628
Rated: 4.00 out of 5 (1 vote)
Updated: 2004-10-11 14:12:34

 

By:

sendpm.gif

email.gif

Important note
This tab is available online because we obtained explicit permission from Bombarder or their label.


#----------------------------------PLEASE NOTE---------------------------------#
#This file is the author's own work and represents their interpretation of the #
#song. You may only use this file for private study, scholarship, or research. #
#Unless specified otherwise, this is NOT an official tab from the band members.#
#------------------------------------------------------------------------------#

  Visit MetalTabs.com for more metal tablature
  
Band: BOMBARDER
Album: Bez milosti
Song: Glasnik smrti

Copyright Explosive Records 1991.

Transcribed By: Svetovid
Email: srbija_iznad_svega@yahoo.com


Riff 1:

E------------------------------------
H------------------------------------
G------------------------------------
D-------------2------------2---------
A---2?2?--2-3----2-2---2-3---3-2-----
E---0?0----------0?0-----------------

Riff 1b:

E------------------------------------
H------------------------------------
G------------2-----------2-----------
D--------2-3---------2-3---3-2-------
A---2?2?--------2-2------------------
E---0?0---------0?0------------------

Riff 2:

E------------------------------------
H------------------------------------
G------------------------------------
D-----------------------------9?7?7--
A-----------------------------7?5?5--
E---0-000-000-000-000-000-000--------
    . ... ... ... ... ... ...

Riff 3:

E------------------------------------
H------------------------------------
G------------------------------------
D--------9--7--5--4--5--4------------
A--------7--5--3--2--3--2------------
E---0-0------------------------------
    . .

Riff 4:

E--------------------------------------------
H--------------------------------------------
G--------------------------------------------
D-------------------------------------2------
A---------------------------------2-3---3-2--
E---0000-0000-0000-0000-0000-0000------------
    .... .... .... .... .... ....



Suport Serbian metal scene: http://www.serbian-metal.org/

  Visit MetalTabs.com for more metal tablature

bottom separator

Contact Us | Privacy Policy | Disclaimer | Legal Notice
Copyright © 2001-2014 MetalTabs.com. All Rights Reserved.