top separator

Home

Forum

What's New

Submit a Tab

FAQ

Links

Contact Us

Link to Us

MuSpy.com

MetalTabs.com logo

Bands

0-9

A

B

C

D

E

F

G

H

I

J

K

L

M

N

O

P

Q

R

S

T

U

V

W

X

Y

Z

Search

What

Where
 

Defleshed - "Wilder Than Fire" Guitar Tab

Plain Text Version
More Defleshed Tabs

Hits: 2859
Rated: 5.00 out of 5 (2 votes)
Updated: 2004-10-11 14:11:15

 

By:

hot spicy

sendpm.gif

email.gif

Important note
This tab is available online because we obtained explicit permission from Defleshed or their label.


#----------------------------------PLEASE NOTE---------------------------------#
#This file is the author's own work and represents their interpretation of the #
#song. You may only use this file for private study, scholarship, or research. #
#Unless specified otherwise, this is NOT an official tab from the band members.#
#------------------------------------------------------------------------------#

  Visit MetalTabs.com for more metal tablature
  
Band:  Defleshed
Album: Fast forward
Song:  Wilder than fire

Copyright (c) War musik    1999
Version 1.0  09.10.2004

Transcribed By: Hot Spicy
Email:          www.unchallengedhate.de / www.japanische-kampfhoerspiele.de

-  - palm mute           /  - slide up to
\  - slide down to       ~  - vibrato
h  - hammer on           b  - Bend
p  - pull off            Suffixes for bend
t  - tap                 f  - full bend    h - half bend
ph - pinched harmonic    q  - quarter bend t - tap bend
*  - see comment         ^  - Hold bend    r release bend
x  - Stuccatto           ~  - vibrato bend
,  - slight palm mute    () - ghost note, sustained note
"  - tremolo note        <> - Trill

Tuning 3 half steps down

|------intro-guitar-one---------|
|-------------------------------|
|-------------------------------|
|-------------------------------|
|-7-----7-----7-----7-----8---5-|
|-7-0-0-7-0-0-7-0-0-7-0-0-8-0-5-|
    - -   - -   - -   - -   -
|---------------------------------------------------------------------
|---------------------------------------------------------------------
|---------------------------------------------------------------------
|---------------------------------------------------------------------
|-7-----7-----7-----7-----8---10---7-----7-----8---10---8---10---10---
|-7-0-0-7-0-0-7-0-0-7-0-0-8-0-10---7-0-0-7-0-0-8-0-10-0-8-0-10-0-10---
    - -   - -   - -   - -   -        - -   - -   -    -   -    -
 ---------------------------------------------|-only-one-guitar-|
 ---------------------------------------------|-----------------|
 ---------------------------------------------|-----------------|
 ---------------------------------------------|-5---7---8-------|
 -7-----7-----7-----7-----8---10---3------6---|-5---7---8-------|
 -7-0-0-7-0-0-7-0-0-7-0-0-8-0-10-0-3------6---|-----------------|
    - -   - -   - -   - -   -    -
|-------------------------------------------------------------------
|-------------------------------------------------------------------
|------------------------------------------------------------9------
|-9-----12-----9-----12-----8---9\8-9-----12----10-----8-----9------
|-7-----10-----7-----10-----6---7\6-7-----10-----8-----6-----7------
|---0-0----0-0---0-0----0-0---0-------0-0----0-0---0-0---0-0--------
    - -    - -   - -    - -   -       - -    - -   - -   - -
 ---------------------------------------------------------------------|
 ---------------------------------------------------------------------|
 ---------------------------------------------------------------------|
 -9-----12-----9-----12-----8---9------------------------------8------|
 -7-----10-----7-----10-----6---7------------------------------6------|
 ---0-0----0-0---0-0----0-0---0-----6-6-6-7-7-7-10-10-10-7-7-7--------|
    - -    - -   - -    - -   -     - - - - - - -- -- -- - - -
|-------------3-times-------------|------------last-time--------------|
|---------------------------------|-----------------------------------|
|---------------------------------|-----------------------------------|
|---------------------------------|---------------------2/2-------2/3-|
|-4-----------3-------5-------3---|-3-----------3-------2/3-------2/3-|
|-2---2-222-2-1---2-2-----2-2-----|-1---1-111-1-1---1-1-------1-1-----|
      - --- -     - -     - -           - --- -     - -       - -
|----------------------------------------------------------------
|----------------------------------------------------------------
|----------------------------------------------------------------
|-------------------------5--------------------------------------
|-------5-----8-----------5-7-8---------5-----8-----------9/10-8-
|-7-777---7-7---7-7-7-7-7---------7-777---7-7---7-7-7-7-7-7/-8-6-
  - ---   - -   - - - - -         - ---   - -   - - - - -
 -----------------------------------------------|
 -----------------------------------------------|
 -----------------------------------------------|
 -------------------------5---------------------|
 -------5-----8-----------5-7-8---------5-----9-|
 -7-777---7-7---7-7-7-7-7---------7-777---7-5-7-|
  - ---   - -   - - - - -         - ---   - -
|---------------------------2-times------------------------------|
|----------------------------------------------------------------|
|----------------------------------------------------------------|
|-------------------------5--------------------------------------|
|-------5-----8-----------5-7-8---------5-----8-----------9/10-8-|
|-7-777---7-7---7-7-7-7-7---------7-777---7-7---7-7-7-7-7-7/-8-6-|
  - ---   - -   - - - - -         - ---   - -   - - - - -
|---------------------------------------------------------------------
|---------------------------------------------------------------------
|---------------------------------------------------------------------
|-9-----9-----9-----9-----12---8---9-----9-----12-------------10------
|-7-----7-----7-----7-----10-------7-----7-----10---101010-7---8------
|---0-0---0-0---0-0---0-0----0-------0-0---0-0----0--------0-0--------
    - -   - -   - -   - -    -       - -   - -    - ------   -
 ---------------------------------------------------------------------|
 ---------------------------------------------------------------------|
 ---------------------------------------------------------------------|
 -9-----9-----9-----9-----12---8------------------------------8-------|
 -7-----7-----7-----7-----10----------------------------------6-------|
 ---0-0---0-0---0-0---0-0----0-----6-6-6-7-7-7-10-10-10-7-7-7---------|
    - -   - -   - -   - -    -     - - - - - - -- -- -- - - -
|---------------------------------------------------------------------
|---------------------------------------------------------------------
|---------------------------------------------------------------------
|---------------------------------------------------------------------
|-7-----7-----7-----7-----8---10---7-----7-----8---10---8---10---10---
|-7-0-0-7-0-0-7-0-0-7-0-0-8-0-10---7-0-0-7-0-0-8-0-10-0-8-0-10-0-10---
    - -   - -   - -   - -   -        - -   - -   -    -   -    -
 ---------------------------------------------|-only-one-guitar-|
 ---------------------------------------------|-----------------|
 ---------------------------------------------|-----------------|
 ---------------------------------------------|-5---7---8-------|
 -7-----7-----7-----7-----8---10---3------6---|-5---7---8-------|
 -7-0-0-7-0-0-7-0-0-7-0-0-8-0-10-0-3------6---|-----------------|
    - -   - -   - -   - -   -    -
|-----------------------------------------------------------------|
|-----------------------------------------------------------------|
|-----------------------------------------------------------------|
|-----------------------------------------3h5-0h2-----------------|
|---------------------------------8-----------------------------3-|
|-0-000-0-5h6-3h5-0-000-0-5h6-5p3-6---0-0---------0-000-0-3-4-6---|
  - --- -         - --- -             - -         - --- -
|---------------------------------------------------------------------
|---------------------------------------------------------------------
|---------------------------------------------------------------------
|-9------------------------------------9----------------------------8-
|-7------------------------------------7---------------10-----------6-
|-----0-000-0-000-55557777101010107777-----0-000-0-000-10---0-000-0---
      - --- - ---                          - --- - ---      - --- -
|--------------------------------------------------------------|
|--------------------------------------------------------------|
|--------------------------------------------------------------|
|-9------------------------------------9---------------12------|
|-7------------------------------------7---------------10------|
|-----0-000-0-000-55557777101010107777-----0-000-0-000---------|
      - --- - ---                          - --- - ---
|-------------------------------------------------------------------
|-------------------------------------------------------------------
|------------------------------------------------------------9------
|-9-----12-----9-----12-----8---9\8-9-----12----10-----8-----9------
|-7-----10-----7-----10-----6---7\6-7-----10-----8-----6-----7------
|---0-0----0-0---0-0----0-0---0-------0-0----0-0---0-0---0-0--------
    - -    - -   - -    - -   -       - -    - -   - -   - -
 -------------------------------------------------------------------------|
 -------------------------------------------------------------------------|
 -------------------------------------------------------------------------|
 -9-----12-----9-----12-----8---9------------------------------8------2---|
 -7-----10-----7-----10-----6---7------------------------------6------2---|
 ---0-0----0-0---0-0----0-0---0-----6-6-6-7-7-7-10-10-10-7-7-7--------0---|
    - -    - -   - -    - -   -     - - - - - - -- -- -- - - -

 finished, over and out................

  Visit MetalTabs.com for more metal tablature

bottom separator

Contact Us | Privacy Policy | Disclaimer | Legal Notice
Copyright © 2001-2014 MetalTabs.com. All Rights Reserved.