top separator

Home

Forum

What's New

Submit a Tab

FAQ

Links

Contact Us

Link to Us

MuSpy.com

MetalTabs.com logo

Bands

0-9

A

B

C

D

E

F

G

H

I

J

K

L

M

N

O

P

Q

R

S

T

U

V

W

X

Y

Z

Search

What

Where
 

Defleshed - "Feeding Fatal Fairies" Guitar Tab

Plain Text Version
More Defleshed Tabs

Hits: 3083
Rated: 3.00 out of 5 (2 votes)
Updated: 2004-10-11 14:11:03

 

By:

hot spicy

sendpm.gif

email.gif

Important note
This tab is available online because we obtained explicit permission from Defleshed or their label.


#----------------------------------PLEASE NOTE---------------------------------#
#This file is the author's own work and represents their interpretation of the #
#song. You may only use this file for private study, scholarship, or research. #
#Unless specified otherwise, this is NOT an official tab from the band members.#
#------------------------------------------------------------------------------#

  Visit MetalTabs.com for more metal tablature
  
Band:  Defleshed
Album: Fast forward
Song:  Feeding fatal fairies

Copyright (c) War musik    1999
Version 1.0  09.10.2004

Transcribed By: Hot Spicy
Email:          www.unchallengedhate.de / www.japanische-kampfhoerspiele.de

-  - palm mute           /  - slide up to
\  - slide down to       ~  - vibrato
h  - hammer on           b  - Bend
p  - pull off            Suffixes for bend
t  - tap                 f  - full bend    h - half bend
ph - pinched harmonic    q  - quarter bend t - tap bend
*  - see comment         ^  - Hold bend    r release bend
x  - Stuccatto           ~  - vibrato bend
,  - slight palm mute    () - ghost note, sustained note
"  - tremolo note        <> - Trill

Tuning 3 half steps down

|----intro----|------guitar-1-----|-------guitar-2-----|-both-guitars--|
|-------------|-------------------|--------------------|---------------|
|-------------|-------------------|--------------------|---------------|
|---------3---|-------------------|-4------------------|-4-4-4-4-4-4-4-|
|-5---2---1---|-2---222222223p2p0-|-2------------------|-2-2-2-2-2-2-2-|
|-3---0-------|-------------------|--------------------|---------------|
          -         --------
|-----------------------------------------------------------------------|
|-----------------------------------------------------------------------|
|-----------------------------------------------------------------------|
|-4---------------------------------------------------------------------|
|-2---222222223p2p0-2---222222223p2p0-2---222222222222-7--------7---6-7-|
|------------------------------------------------------5---5555-5---4-5-|
      --------          --------          ------------     ----     - -
|------break-only-one-guitar------|
|---------------------------------|
|---------------------------------|
|---------------------------------|
|-2-----------------------------3-|
|-0---000-000-000-000-000-000---3-|
      --- --- --- --- --- ---
|---------------------------------------------------------------|
|---------------------------------------------------------------|
|---------------------------------------------------------------|
|---------------------------------------------------------------|
|-------------------------------1-------------------------1---1-|
|-2-222-3--222-2-222-222--3p2-3---3-3-333-333-333-333-333---3---|
  - ---    --- - --- ---      - - - - --- --- --- --- ---   -
|------------last-time------------|
|---------------------------------|
|---------------------------------|
|-------------------------------3-|
|-------------------------------3-|
|-2-222-3--222-2-222-222--3p2-----|
  - ---    --- - --- ---
|---------------------------break-------------------------------|
|---------------------------------------------------------------|
|---------------------------------------------------------------|
|-4-------8-------9------11-------12-------14-------16-------16-|
|-2-------6-------7-------9-------10-------12-------14-------14-|
|-----000-----000-7---000-----000------000------000-------------|
      ---     ---     ---     ---      ---      ---
|---------------------------------|
|---------------------------------|
|---------------------------------|
|-6-----------6-------------------|
|-6-----------6-----------1-0-----|
|-----555-555-----555-555-----3-0-|
      --- ---     --- --- - - - -
|------------------------------------------------------------------------------|
|------------------------------------------------------------------------------|
|------------------------------------------------------------------------------|
|---------------------------------2--------------------------------------3-----|
|-2-----4-----2-----4-----2---4---2------2-----4-----2-----4-----2---4---3-----|
|-0-0-0-2-0-0-0-0-0-2-0-0-0-0-2-0-0------0-0-0-2-0-0-0-0-0-2-0-0-0-0-2-0-1-----|
    - -   - -   - -   - -   -   -          - -   - -   - -   - -   -   -
|-------------------------guitar-one-----------------------------|
|----------------------------------------------------------------|
|----------------------------------------------------------------|
|-7---------------9--------------10---------------9------9\7--6--|
|-5---5-5-5-5-5-5-7---5-5-5-5-5-5-8---5-5-5-5-5-5-7---5--7\5--4--|
|----------------------------------------------------------------|
      - - - - - -     - - - - - -     - - - - - -     -
|-------------------------guitar-two-----------------------------|
|----------------------------------------------------------------|
|----------------------------------------------------------------|
|-7---------------9--------------10---------------9-------6------|
|-5---------------7---------------8---------------7-------4------|
|-5---------------7---------------8---------------7-------4------|

|-----------------------------------------------------------------
|-----------------------------------------------------------------
|-----------------------------------------------------------------
|-------------------------3---5-----------------------------------
|-2-----4-----2-----4-----3---5---2-----4-----2-----4-------------
|-0-0-0-2-0-0-0-0-0-2-0-0---0-----0-0-0-2-0-0-0-0-0-2-0-0-1-4-2-4-
    - -   - -   - -   - -   -       - -   - -   - -   - - - - - -
 ----------------------------------------------------|
 ----------------------------------------------------|
 ----------------------------------------------------|
 -------------------------3---5---------------3------|
 -2-----4-----2-----4-----3---5---2-----4-----3------|
 -0-0-0-2-0-0-0-0-0-2-0-0---0-----0-0-0-2-0-0-1------|
   - -   - -   - -   - -   -        - -   - -
|-----------------------------------------------------------------
|-----------------------------------------------------------------
|-----------------------------------------------------------------
|-------------------------3---5-----------------------------------
|-2-----4-----2-----4-----3---5---2-----4-----2-----4-------------
|-0-0-0-2-0-0-0-0-0-2-0-0---0-----0-0-0-2-0-0-0-0-0-2-0-0-1-4-2-4-
    - -   - -   - -   - -   -       - -   - -   - -   - - - - - -
 -------------------------------------------------------------------|
 -------------------------------------------------------------------|
 -------------------------------------------------------------------|
 -------------------------3---5-----------------------------------2-|
 -2-----4-----2-----4-----3---5---2-----4-----2-----4-------------2-|
 -0-0-0-2-0-0-0-0-0-2-0-0---0-----0-0-0-2-0-0-0-0-0-2-0-0-1-4-2-4-0-|
    - -   - -   - -   - -   -       - -   - -   - -   - - - - - -

  Visit MetalTabs.com for more metal tablature

bottom separator

Contact Us | Privacy Policy | Disclaimer | Legal Notice
Copyright © 2001-2014 MetalTabs.com. All Rights Reserved.