top separator

Home

Forum

What's New

Submit a Tab

FAQ

Links

Contact Us

Link to Us

MetalTabs.com logo

Bands

0-9

A

B

C

D

E

F

G

H

I

J

K

L

M

N

O

P

Q

R

S

T

U

V

W

X

Y

Z

Search

What

Where
 

Defleshed - "Speeding The Ways" Guitar Tab

Plain Text Version
More Defleshed Tabs

Hits: 2821
Rated: 3.00 out of 5 (2 votes)
Updated: 2004-10-11 14:04:08

 

By:

hot spicy

sendpm.gif

email.gif

Important note
This tab is available online because we obtained explicit permission from Defleshed or their label.


#----------------------------------PLEASE NOTE---------------------------------#
#This file is the author's own work and represents their interpretation of the #
#song. You may only use this file for private study, scholarship, or research. #
#Unless specified otherwise, this is NOT an official tab from the band members.#
#------------------------------------------------------------------------------#

  Visit MetalTabs.com for more metal tablature
  
Band:  Defleshed
Album: Fast forward
Song:  Speeding the ways

Copyright (c) War musik    1999
Version 1.0  06.10.2004

Transcribed By: Hot Spicy
Email:          www.unchallengedhate.de / www.japanische-kampfhoerspiele.de

-  - palm mute           /  - slide up to
\  - slide down to       ~  - vibrato
h  - hammer on           b  - Bend
p  - pull off            Suffixes for bend
t  - tap                 f  - full bend    h - half bend
ph - pinched harmonic    q  - quarter bend t - tap bend
*  - see comment         ^  - Hold bend    r release bend
x  - Stuccatto           ~  - vibrato bend
,  - slight palm mute    () - ghost note, sustained note
"  - tremolo note        <> - Trill

Tuning 3 half steps down

|----4-times-----|---------|
|----------------|---------|
|----------------|---------|
|-6-------5------|-6-------|
|-4---6---5------|-4---6---|
|-----4---3------|-----4---|
      -                -
|-----------------------------------------------------------------|
|-----------------------------------------------------------------|
|-----------------------------------------------------------------|
|-4-----5-----6-------------------4-----5-----6-------------------|
|-----------------4-444-4-444-444-----------------------5---------|
|---3-3---3-3-----------------------3-3---3-3-----5-6-7---7-6-5-4-|
    - -   - -     - --- - --- ---   - -   - -     - - - - - - - -
|-------------------------last-time--------------------------------|
|------------------------------------------------------------------|
|------------------------------------------------------------------|
|-4-----5-----6-------------------4-----5-----6--------------------|
|-----------------4-444-4-444-444-----------------------5-7---10---|
|---3-3---3-3-----------------------3-3---3-3-----5-6-7---5---8----|
    - -   - -     - --- - --- ---   - -   - -     - - - -
|------------------------------------------------------------------|
|------------------------------------------------------------------|
|------------------------------------------------------------------|
|------------------------------------------------------------------|
|---------9-----------9---3---6-----------4-----------5---7---10---|
|-7-777-7-7---7-777-7-7---1---4---1-111-1-2---1-111-1-3---5---8----|
  - --- -     - --- -             - --- -     - --- -
|---------------------------------------------------------------------|
|---------------------------------------------------------------------|
|---------------------------------------------------------------------|
|-----------------------------------3-----------------------3-----0---|
|-3---------------3-----------------3---------------3-------3-----0---|
|-1---000000003p0-1---000000003p0-------000000003p0-1---0-0---0-0-----|
      --------        --------          --------        - -   - -
|-----------------break---------------------|
|-------------------------------------------|
|-------------------------------------------|
|-----5-------4-----------------------------|
|-----3-------2---------------------------2-|
|-0-0-----0-0-----3-2-0-3-2-0-3-2-0-3-2-0-0-|
  - -     - -     - - - - - - - - - - - -
|---------------------1-and-3-times-----------------------|
|---------------------------------------------------------|
|-7----------7------8------7------------------------------|
|-7----------7------8------7--5--7------------------------|
|---00000000---0000---0000----5--7----------------------5-|
|-----------------------------------6-5-6-5-6-5-6-5-6-5-3-|
                                    - - - - - - - - - -
|----------------------second-time-----------------------|
|--------------------------------------------------------|
|-7----------7------8------7---------------------------5-|
|-7----------7------8------7--5--7--------------7------5-|
|---00000000---0000---0000----5--7--------------7--0-0---|
|-----------------------------------6-5-6-5-6-5----------|
                                    - - - - - -    - -
|-----------------------last-time----------------------------|
|------------------------------------------------------------|
|-7----------7------8------7---------------------------------|
|-7----------7------8------7--5--7---------------------------|
|---00000000---0000---0000----5--7------------------7---10---|
|-----------------------------------6-5-6-5-6-5-6-5-5---8----|
                                    - - - - - - - -
|--break-4-times--|-----------------|
|-----------------|-----------------|
|-----------------|-----------------|
|-5-----6-----7---|-----------------|
|-----------------|-------5---------|
|---3-3---3-3-----|-5-6-7---7-6-5-4-|
    - -   - -       - - - - - - - -
|---------------------------------ending-------------------------------------|
|----------------------------------------------------------------------------|
|-7----------7------8------7-------------------------------------------------|
|-7----------7------8------7--5--7------------------6-------5------6-------5-|
|---00000000---0000---0000----5--7------------------4---6---5------4---6---5-|
|-----------------------------------6-5-6-5-6-5-6-5-----4---3----------4---3-|
                                    - - - - - - - -     -              -

great one...

  Visit MetalTabs.com for more metal tablature

bottom separator

Contact Us | Privacy Policy | Disclaimer | Legal Notice
Copyright © 2001-2014 MetalTabs.com. All Rights Reserved.