top separator

Home

Forum

What's New

Submit a Tab

FAQ

Links

Contact Us

Link to Us

MetalTabs.com logo

Bands

0-9

A

B

C

D

E

F

G

H

I

J

K

L

M

N

O

P

Q

R

S

T

U

V

W

X

Y

Z

Search

What

Where
 

Necronomicon (CA) - "The Silver Key" Guitar Tab

Plain Text Version
More Necronomicon (CA) Tabs

Hits: 4150
Rated: 4.92 out of 5 (12 votes)
Updated: 2004-10-11 14:03:30

 

By:

johnmansley

sendpm.gif

email.gif

Important note
This tab is available online because we obtained explicit permission from Necronomicon (CA) or their label.


#----------------------------------PLEASE NOTE---------------------------------#
#This file is the author's own work and represents their interpretation of the #
#song. You may only use this file for private study, scholarship, or research. #
#Unless specified otherwise, this is NOT an official tab from the band members.#
#------------------------------------------------------------------------------#

  Visit MetalTabs.com for more metal tablature
  
Band:  Necronomicon
Album: Pharoah Of Gods
Song:  The Silver Key

Copyright (c)  (Unique Leader) (2002)
Version 1.0 - (07/10/04)

Transcribed By: John Mansley
Email:          john@smansley.freeserve.co.uk


.  - palm mute           /  - slide up to
\  - slide down to       ~  - vibrato
h  - hammer on           b  - Bend
p  - pull off            Suffixes for bend
t  - tap                 f  - full bend    h - half bend
ph - pinched harmonic    q  - quarter bend t - tap bend
*  - see comment         ^  - Hold bend    r release bend
x  - Stuccatto           ~  - vibrato bend
,  - slight palm mute    () - ghost note, sustained note
"  - tremolo note        <> - Trill
nh - natural harmonic    .  - (above note) staccato

Notes : All riffs are distorted unless notated otherwise.

Tuning: Tune down 3 half-steps to C# F# B E G# C#


Intro: Clean tone

|------------------|------------------|
|------------------|------------------|
|------------------|------------------|
|-5---4------------|-5---4---7--------|
|------------------|------------------|
|------------------|------------------|


Riff A1:

|---------------------|
|---------------------|
|-/6------------------|
|------/5---/4--------|
|-/4------------------|
|------/3---/2---0000-|
                 ....


Riff A2:

|----------------------|
|----------------------|
|-/6-------------------|
|------/5---/4---------|
|-/4-------------------|
|------/3---/2---000-0-|
                 ... .


Riff B:

|---------------------|----------------------|
|---------------------|----------------------|
|---------------------|----------------------|
|---4/5\4---3/4\3-----|---4/5\4---3/4\3-3333-|
|---------------------|----------------------|
|-0-2/3\2-0-1/2\1-000-|-0-2/3\2-0-1/2\1------|
  .       .       ...   .       .


Riff C:

|-----------------|-----------------|
|-----------------|-----------------|
|-----------------|-------6\5-------|
|-----------------|-------------6/7-|
|-----3-------4---|---3---4\3-------|
|-0-0---0-0-0---0-|-0---0-----0-4/5-|
  . .   . . .   .   .   .     .


Riff D:

|-----------------------|-----------------------|
|-----------------------|-----------------------|
|-----------------------|-----------------------|
|-----------------------|-----------------------|
|-2-2-2-(2)////88888888-|-2-2-2-(2)////77777777-|
|-0-0-------------------|-0-0-------------------|
  . .                     . .


Riff E1:

|--------------|------------------|--------------|------------------|
|--------------|------------------|--------------|------------------|
|--------------|------------------|--------------|------------------|
|---.-55554444-|---.-555544447777-|---.-55554444-|---.-555544447777-|
|-2-2----------|-2-2--------------|-2-2----------|-2-2--------------|
|-0-0----------|-0-0--------------|-0-0----------|-0-0--------------|
  . .            . .                . .            . .

|--------------|------------------|--------------|------------------|
|--------------|------------------|--------------|------------------|
|---.----------|---.--------------|--------------|------------------|
|-7-7-55554444-|-7-7-555544447777-|---.-55554444-|---.-555544447777-|
|-5-5----------|-5-5--------------|-2-2----------|-2-2--------------|
|--------------|------------------|-0-0----------|-0-0--------------|
  . .            . .                . .            . .

|--------------|------------------|
|--------------|------------------|
|--------------|------------------|
|---.-55554444-|---.-555544447777-|
|-2-2----------|-2-2--------------|
|-0-0----------|-0-0--------------|
  . .            . .


Riff E2:

|--------------|------------------|--------------|------------------|
|--------------|------------------|--------------|------------------|
|--------------|------------------|--------------|------------------|
|-----55554444-|-----555544447777-|-----55554444-|-----555544447777-|
|-2-2----------|-2-2--------------|-2-2----------|-2-2--------------|
|-0-0----------|-0-0--------------|-0-0----------|-0-0--------------|


|--------------|------------------|--------------|------------------|
|--------------|------------------|--------------|------------------|
|--------------|------------------|--------------|------------------|
|-7-7-55554444-|-7-7-555544447777-|-----55554444-|-----555544447777-|
|-5-5----------|-5-5--------------|-2-2----------|-2-2--------------|
|--------------|------------------|-0-0----------|-0-0--------------|


|--------------|------------------|
|--------------|------------------|
|--------------|------------------|
|-----55554444-|-----555544447777-|
|-2-2----------|-2-2--------------|
|-0-0----------|-0-0--------------|


Rhy. Fill:

|----------------|----------------|
|----------------|----------------|
|--------.-------|----------------|
|-8\---\(2)------|----------------|
|--------.-------|----------------|
|-6\---\(0)------|----------------|


Riff F:            ________________  ________________
                                  1|                2|
|-----------------|-----------------|-----------------|
|-----------------|-----------------|-----------------|
|-----------------|-----------------|-----------------|
|-----------------|-----------------|-----------------|
|---------------5-|---------------2-|---------6/7-6~~-|
|-0-5-3-2-0-2-0-3-|-0-5-3-2-0-3-2-0-|-0-5-3-2---------|
  . . . . . . . .   . . . . . . .     . . . .


Outro:

|----------------|----------------|
|----------------|----------------|
|----------------|----------------|
|----------------|----------------|
|----------------|----------------|
|-0----------0-1-|-3------1----2--|



Song Structure:

Intro      (x6)
Riff A1    (x8)
Riff A2
Riff B     (x4)
Riff A1    (x8)
Riff A2
Riff C     (x8)
Riff D     (x4)
Riff E1
Riff E2    (x2)
Riff B     (x4)
Rhy. Fill
Riff F     (x4)
Riff C     (x8)
Riff D     (x4)
Riff E1
Riff E2    (x2)
Outro      (Play approximately 14 times before becoming
            inaudible due to fade)


This was nice and easy and as a result should be near very
close to perfect but, as usual, if you spot an error or just
want to make a suggestion or comment I encourage you to do
so.

Also, I encourage you to register a rating that reflects the
quality of this tab.  The only way I know that a tab needs
improving or not is if people give it an accurate rating.
Thanks in advance.


END

  Visit MetalTabs.com for more metal tablature

bottom separator

Contact Us | Privacy Policy | Disclaimer | Legal Notice
Copyright © 2001-2014 MetalTabs.com. All Rights Reserved.