top separator

Home

Forum

What's New

Submit a Tab

FAQ

Links

Contact Us

Link to Us

MuSpy.com

MetalTabs.com logo

Bands

0-9

A

B

C

D

E

F

G

H

I

J

K

L

M

N

O

P

Q

R

S

T

U

V

W

X

Y

Z

Search

What

Where
 

Defleshed - "The Iron And The Maiden" Guitar Tab

Plain Text Version
More Defleshed Tabs

Hits: 3018
Rated: 5.00 out of 5 (2 votes)
Updated: 2004-10-16 15:57:20

 

By:

hot spicy

sendpm.gif

email.gif

Important note
This tab is available online because we obtained explicit permission from Defleshed or their label.


#----------------------------------PLEASE NOTE---------------------------------#
#This file is the author's own work and represents their interpretation of the #
#song. You may only use this file for private study, scholarship, or research. #
#Unless specified otherwise, this is NOT an official tab from the band members.#
#------------------------------------------------------------------------------#

  Visit MetalTabs.com for more metal tablature
  
Band:  Defleshed
Album: Fast forward
Song:  The iron and the maiden

Copyright (c) War musik    1999
Version 1.0  05.10.2004

Transcribed By: Hot Spicy
Email:          www.unchallengedhate.de / www.japanische-kampfhoerspiele.de

-  - palm mute           /  - slide up to
\  - slide down to       ~  - vibrato
h  - hammer on           b  - Bend
p  - pull off            Suffixes for bend
t  - tap                 f  - full bend    h - half bend
ph - pinched harmonic    q  - quarter bend t - tap bend
*  - see comment         ^  - Hold bend    r release bend
x  - Stuccatto           ~  - vibrato bend
,  - slight palm mute    () - ghost note, sustained note
"  - tremolo note        <> - Trill

Tuning 3 half steps down

|-----------------4-times-------------------|-------------------|
|-------------------------------------------|-------------------|
|-------------------------------------------|-------------------|
|-------------------------------------------|-------------------|
|-------5---------5---------5---------6h7p6-|-------5---------5-|
|-3-1-0-3---3-1-0-3---3-1-0-3---0-5-8-------|-3-1-0-3---3-1-0-3-|
  - - -     - - -     - - -     - - -         - - -     - - -
|-------------------------------------------------------|
|-------------------------------------------------------|
|-------------------------------------------------------|
|------------3-----------1h2p1------------------2-------|
|-/7-----6---------3------------7-----6---------2-----3-|
|-/8-8-8-7-----0-0---0-0--------8-8-8-7---3-333---0-0-1-|
     - -       - -   - -          - -     - ---   - -
|-------------------------------------------------------|
|-------------------------------------------------------|
|-------------------------------------------------------|
|------------------3-----1h2p1------------------2-------|
|-/7-----6---3------------------7-----6---------2-----3-|
|-/8-8-8-7-----0-0---0-0--------8-8-8-7---3-333---0-0-1-|
     - -       - -   - -          - -     - ---   - -
|--------------------------------------------------------------|
|--------------------------------------------------------------|
|--------------------------------------------------------------|
|--------------------------------------------------------------|
|-----5-----5-----5-----5-----5---6-----6-----6-----6-----6--7-|
|-3-3-3-3-3-3-3-3-3-3-3-3-3-3-3---3-3-3-3-3-3-3-3-3-3-3-3-3--5-|
  - -   - -   - -   - -   - -       - -   - -   - -   - -
|-----------------------------------------------------------------|
|-----------------------------------------------------------------|
|-----------------------------------------------------------------|
|-----------------------------------------------------------------|
|-----5-----5-----5-----5-----5---3p0-------------3p0-------------|
|-3-3-3-3-3-3-3-3-3-3-3-3-3-3-3-------2-222-2-222-----2-222-2-222-|
  - -   - -   - -   - -   - -         - --- - ---     - --- - ---
|-four-times-|
|------------|
|------------|
|-----5------|
|-----5------|
|-3-0-3------|
  - -
|---------------------------------------------------------------|
|---------------------------------------------------------------|
|---------------------------------------------------------------|
|---------------------------------------------------------------|
|-3p0-----3p0-----3p0-----3p0-----7-6-4-----------7-6-4---------|
|-----2-2-----2-2-----2-2-----2-2-5-4-2---2-222-2-5-4-2-2-222-2-|
      - -     - -     - -     - - - -     - --- - - -   - --- -
|---------------------second-time-only--------------------------|
|---------------------------------------------------------------|
|---------------------------------------------------------------|
|---------------------------------------------------------------|
|-3p0-----3p0-----3p0-----3p0-----7-6-4-----------7-6-4---------|
|-----2-2-----2-2-----2-2-----2-2-5-4-2-----------5-4-2---------|
      - -     - -     - -     - - - -             - -
|---------------------------------------------------------|
|---------------------------------------------------------|
|---------------------------------------------------------|
|----5-----4-----5----------------5-----4-----5-----------|
|----5-----4-----5-----3-/-6------5-----4-----5-----3-/-8-|
|-3-----2-----3-----1--1-/-4---3-----2-----3-----1--1-/-6-|
  -     -     -     -          -     -     -     -
|-----------------------------------------------------|
|-----------------------------------------------------|
|-----------------------------------------------------|
|-----5--------------------------5--------------------|
|-----5------4p1-----4p1---------5----------3-------8-|
|-3-0-3----------3-3-----3-3-3-0-3------1-1-1---6-6-6-|
  - -            - -     - - - -        - -     - -
|-----break-----|
|---------------|
|---------------|
|---------------|
|-5------6------|
|-3------4------|

|---------------------------------------------------------------------|
|---------------------------------------------------------------------|
|---------------------------------------------------------------------|
|-----3-----------1h2p1-----------------------3-----1h2p1-------------|
|-----------3---------------5-6--2------3---------------------5-6--2--|
|-1-1---1-1---1-1---------0-3-4--0--1-1---1-1---1-1---------0-3-4--0--|
  - -   - -   - -         - -       - -   - -   - -         - -
|-----------------------------ending-----------------------------------|
|----------------------------------------------------------------------|
|----------------------------------------------------------------------|
|-----------------------------------------------------------------4--4-|
|-3p0-----3p0-----3p0-----3p0-----3p0-----3p0-----3p0-----3p0-----4--4-|
|-----2-2-----2-2-----2-2-----2-2-----2-2-----2-2-----2-2-----2-0-2--2-|
      - -     - -     - -     - -     - -     - -     - -     - -

  Visit MetalTabs.com for more metal tablature

bottom separator

Contact Us | Privacy Policy | Disclaimer | Legal Notice
Copyright © 2001-2014 MetalTabs.com. All Rights Reserved.