top separator

Home

Forum

What's New

Submit a Tab

FAQ

Links

Contact Us

Link to Us

MetalTabs.com logo

Bands

0-9

A

B

C

D

E

F

G

H

I

J

K

L

M

N

O

P

Q

R

S

T

U

V

W

X

Y

Z

Search

What

Where
 

Defleshed - "Snowballing Blood" Guitar Tab

Plain Text Version
More Defleshed Tabs

Hits: 3558
Rated: 3.00 out of 5 (2 votes)
Updated: 2004-10-11 13:51:59

 

By:

hot spicy

sendpm.gif

email.gif

Important note
This tab is available online because we obtained explicit permission from Defleshed or their label.


#----------------------------------PLEASE NOTE---------------------------------#
#This file is the author's own work and represents their interpretation of the #
#song. You may only use this file for private study, scholarship, or research. #
#Unless specified otherwise, this is NOT an official tab from the band members.#
#------------------------------------------------------------------------------#

  Visit MetalTabs.com for more metal tablature
  
Band:  Defleshed
Album: Fast forward
Song:  Snowballing blood

Copyright (c) War musik    1999
Version 1.0  02.10.2004

Transcribed By: Hot Spicy
Email:          www.unchallengedhate.de / www.japanische-kampfhoerspiele.de

-  - palm mute           /  - slide up to
\  - slide down to       ~  - vibrato
h  - hammer on           b  - Bend
p  - pull off            Suffixes for bend
t  - tap                 f  - full bend    h - half bend
ph - pinched harmonic    q  - quarter bend t - tap bend
*  - see comment         ^  - Hold bend    r release bend
x  - Stuccatto           ~  - vibrato bend
,  - slight palm mute    () - ghost note, sustained note
"  - tremolo note        <> - Trill

Tuning 3 half steps down

|-----------4-times------------|---------last-one---------|
|------------------------------|--------------------------|
|------------------------------|--------------------------|
|------------------------------|--------------------------|
|-3-3-3------------------5-4-5-|-3-3-3------------------5-|
|-1-1-1----3-2-3--2-0-2--3-2-3-|-1-1-1----3-2-3-2-0-2--3-|
  - -                    - -     - -
|------------------------(riff-b)-----------------------------
|-second-time-only-note-on-d-string---------------------------
|-------------------------------------------------------------
|(4)----------------------------------------4-----------------
|-4---------------------4-----5-----------------3-----------7-
|-2-2-222-2-222-2-222-2---2-2---2-222-2-222---2---2-5-2-4-2-5-
    - --- - --- - --- -   - -   - --- - ---   -   -   -   -
 ----------------------------------|--first-time--|-second-time--|
 ----------------------------------|--------------|--------------|
 ----------------------------------|--------------|--------------|
 ----------------------------------|--------------|--------------|
 ---------------------4-----5------|-----4------4-|-----4------6-|
 -2-222-2-222-2-222-2---2-2-5------|-4-4-4--4-4-4-|-4-4-4--6-6-6-|
  - --- - --- - --- -   - -          - -    - -     - -    - -
|-------------------------------------------------------------|
|-------------------------------------------------------------|
|-------------------------------------------------------------|
|-------------------------------------------------3-----------|
|---------3---5-----------5---3---7---------------3-------3-3-|
|-2-222-2---2-----2-222-2---2---2-5---2-222-2-222-----2-2-1-1-|
  - --- -   -     - --- -   -   -     - --- - ---     - -
|-------------------------------------------------------------|
|-------------------------------------------------------------|
|-------------------------------------------------------------|
|---------------------------------5-4-------------------------|
|---------3---5-----------5---3-------5-4-3-----------6-----5-|
|-2-222-2---2-----2-222-2---2---------------4-3---4-4-4-3-3-3-|
  - --- -   -     - --- -   -     - - - - - -     - -   - -
|------------------------------|
|------------------------------|
|------------------------------|
|------------------------------|
|-3-3-3-----------4---4--5-4-5-|
|-1-1-1----3-2-3--2-0-2--3-2-3-|
  - -             - -    - -
|--------------------------------|----------------------|
|--------------------------------|----------------------|
|--------------------------------|----------------------|
|--------------------------------|----------------------|
|--------------------------------|-----4------4--4------|
|--again-riff-b-ending-on-this---|-4-4-4-4-4-4--4------|
                                   - -    - -             last time without
|-only-1|-------------------------------------------------------|----|
|--time-|-------------------------------------------------------|----|
|-------|-------------------------------------------------------|----|
|-9-----|9-----9-----9-----9---12--10---9-----------9-----7---6-|--7-|
|-7-----|7-----7-----7-----7---10---8---7-----7-----7-----5---4-|--5-|
|---0-0-|--0-0---0-0---0-0---0----0---0---0-0-5-0-0---0-0-------|----|
    - -    - -   - -   - -   -    -   -   - -   - -   - -
|-------------------------3-times-----------------------------|
|-------------------------------------------------------------|
|-------------------------------------------------------------|
|-------------------------------------------------------------|
|-4-----------4-----------4-----------4------------5--5--5--5-|
|-2---3-2-3-2-----3-2-3-2-----3-2-3-2-----3-2-3-2--3--3--3--3-|
      - - - -     - - - -     - - - -     - - - -
|------------------------last-time----------------------------|
|-------------------------------------------------------------|
|-------------------------------------------------------------|
|-------------------------------------------------------------|
|-4-----------4-----------5-----------6------------6--4--6--8-|
|-2---3-2-3-2-----4-3-4-3-----5-4-5-4-----5-4-5-4--4--2--4--6-|
      - - - -     - - - -     - - - -     - - - -     -  -
|--------------------------------------------------------|
|--------------------------------------------------------|
|--------------------------------------------------------|
|-----5------5------5------6------5------5--8-------8-8-|
|-7-7-7--7-7-7--7-7-7--8-8-8--7-7-7--7-7-7--7--7-7--7-7-|
|--------------------------------------------------------|
  - -    - -    - -    - -    - -    - -       - -
|--------only-1-guitar----------|
|-------------------------------|
|-------------------------------|
|-----5-----5-----5-----5---5/6-|
|-7-7---7-7---7-7---7-7---7-7/8-|
|-------------------------------|
  - -   - -   - -   - -   -
|--------------------------------------------------------|
|--------------------------------------------------------|
|--------------------------------------------------------|
|-----5------5-------------3------5------5---------------|
|-7-7-7-7-7-7--5-7-8--5-5-5--7-7-7--7-7-7--5-7-8--5-7-8-|
|---------------3-5-6-----------------------3-5-6--3-5-6-|
  - -    - -           - -    - -    - -

Great song with great speed

  Visit MetalTabs.com for more metal tablature

bottom separator

Contact Us | Privacy Policy | Disclaimer | Legal Notice
Copyright © 2001-2014 MetalTabs.com. All Rights Reserved.