top separator

Home

Forum

What's New

Submit a Tab

FAQ

Links

Contact Us

Link to Us

MetalTabs.com logo

Bands

0-9

A

B

C

D

E

F

G

H

I

J

K

L

M

N

O

P

Q

R

S

T

U

V

W

X

Y

Z

Search

What

Where
 

Defleshed - "Fast Forward" Guitar Tab

Plain Text Version
More Defleshed Tabs

Hits: 3340
Rated: 3.00 out of 5 (2 votes)
Updated: 2004-10-11 13:52:24

 

By:

hot spicy

sendpm.gif

email.gif

Important note
This tab is available online because we obtained explicit permission from Defleshed or their label.


#----------------------------------PLEASE NOTE---------------------------------#
#This file is the author's own work and represents their interpretation of the #
#song. You may only use this file for private study, scholarship, or research. #
#Unless specified otherwise, this is NOT an official tab from the band members.#
#------------------------------------------------------------------------------#

  Visit MetalTabs.com for more metal tablature
  
Band:  Defleshed
Album: Fast forward
Song:  Fast forward

Copyright (c) War musik    1999
Version 1.0  02.10.2004

Transcribed By: Hot Spicy
Email:          www.unchallengedhate.de / www.japanische-kampfhoerspiele.de

-  - palm mute           /  - slide up to
\  - slide down to       ~  - vibrato
h  - hammer on           b  - Bend
p  - pull off            Suffixes for bend
t  - tap                 f  - full bend    h - half bend
ph - pinched harmonic    q  - quarter bend t - tap bend
*  - see comment         ^  - Hold bend    r release bend
x  - Stuccatto           ~  - vibrato bend
,  - slight palm mute    () - ghost note, sustained note
"  - tremolo note        <> - Trill

Tuning 3 half steps down

|---------intro------------|
|--------------------------|
|--------------------------|
|-5------5------5----------|
|-3------3------3----------|
|----0-0----0-0----0-0-0-0-|
     - -    - -    - - - -
|----------7-times---------------|-slide-into-riff-b-|
|--------------------------------|-------------------|
|--------------------------------|-------------------|
|------------5-------------------|-------------------|
|-5\4-2------3-------------------|-5-/---------------|
|-3\2-0--0-0----0-0--2-3-2-4-2-5-|-3-/---------------|
         - -    - -  - - - - - -
|-(riff-b)---------------3-times----------------------------|
|-----------------------------------------------------------|
|-----------------------------------------------------------|
|10---------------------6-5-6-7--------------------------10-|
|-8---0-000-4-0-0-3-0-0-6-5-6-7---0-000-4-0-0-3-0-0-2-0-0-8-|
|-----------------------------------------------------------|
      - ---   - -   - -           - ---   - -   - -   - -
|-(riff-b)--------------last-time---------------------------|
|-----------------------------------------------------------|
|-----------------------------------------------------------|
|10---------------------6-5-6-7-----------------------------|
|-8---0-000-4-0-0-3-0-0-6-5-6-7---0-000-4-0-0-3-0-0-2-0-0-5-|
|---------------------------------------------------------3-|
      - ---   - -   - -           - ---   - -   - -   - -
|----------------------------------------------------------------|
|----------------------------------------------------------------|
|----------------------------------------------------------------|
|-------4\3---------4\3-------1---------4\3----------------------|
|-------4\3---------4\3-------1---------4\3----------------------|
|-0-000-------0-000-------0-0-----0-000-------0--3--4----1--4-3-|
  - ---       - ---       - -     - ---
|-----------------------------------|
|-----------------------------------|
|-----------------------------------|
|-2---3------3------3------3/6------|
|-2---3------3------3------3/6------|
|-0---1------1------1------1/4------|

|-(riff-b)-last-time-bevor-going-to-riff-e------------------|
|-----------------------------------------------------------|
|-----------------------------------------------------------|
|10---------------------6-5-6-7-----------------------------|
|-8---0-000-4-0-0-3-0-0-6-5-6-7---0-000-4-0-0-3-6/7-6-5/6-|
|------------------------------------------------4/5-4-3/4-|
      - ---   - -   - -           - ---   - -
|-(riff-e)----------------3-times-------------------------------|
|---------------------------------------------------------------|
|---------------------------------------------------------------|
|-7-----------7-----------------7-----5---------7-----5---------|
|-------8---------6-7-----------------5-----4---------5-----6-7-|
|---0-0---0-0---0-6-7---0-000-0---0-0---0-0-4-----0-0---0-0-----|
    - -   - -   -       - --- -   - -   - -       - -   - -
|-(riff-e)---------------last-time----------------------------|
|-------------------------------------------------------------|
|-------------------------------------------------------------|
|-7-----------7-----------------7-----5---------7-----5-------|
|-------8---------6-7-----------------5-----4---------5-----6-|
|---0-0---0-0---0-6-7---0-000-0---0-0---0-0-4-----0-0---0-0-4-|
    - -   - -   -       - --- -   - -   - -       - -   - -
|------------4-times--------------|----------drums------------|
|---------------------------------|---------------------------|
|---------------------------------|---------------------------|
|---------------------------------|---------------------------|
|-5---4---5---5---4---6/7-6---5/6-|-5-------------------------|
|-3-0-2-0-3-0-3-0-2-04/5-4---3/4-|-3-------------------------|
    -   -   -   -   -
|----------------------------------------------------------------|
|----------------------------------------------------------------|
|----------------------------------------------------------------|
|-------4\3---------4\3-------1---------4\3----------------------|
|-------4\3---------4\3-------1---------4\3---2--5--6----3--6-5-|
|-0-000-------0-000-------0-0-----0-000-------0--3--4----1--4-3-|
  - ---       - ---       - -     - ---

another great one, defleshed rules

  Visit MetalTabs.com for more metal tablature

bottom separator

Contact Us | Privacy Policy | Disclaimer | Legal Notice
Copyright © 2001-2014 MetalTabs.com. All Rights Reserved.