top separator

Home

Forum

What's New

Submit a Tab

FAQ

Links

Contact Us

Link to Us

MuSpy.com

MetalTabs.com logo

Bands

0-9

A

B

C

D

E

F

G

H

I

J

K

L

M

N

O

P

Q

R

S

T

U

V

W

X

Y

Z

Search

What

Where
 

Defleshed - "The Return Of The Flesh" Guitar Tab

Plain Text Version
More Defleshed Tabs

Hits: 3793
Rated: 4.00 out of 5 (4 votes)
Updated: 2004-10-11 13:52:37

 

By:

hot spicy

sendpm.gif

email.gif

Important note
This tab is available online because we obtained explicit permission from Defleshed or their label.


#----------------------------------PLEASE NOTE---------------------------------#
#This file is the author's own work and represents their interpretation of the #
#song. You may only use this file for private study, scholarship, or research. #
#Unless specified otherwise, this is NOT an official tab from the band members.#
#------------------------------------------------------------------------------#

  Visit MetalTabs.com for more metal tablature
  
Band:  Defleshed
Album: Fast forward
Song:  The return of the flesh

Copyright (c) War musik    1999
Version 1.0  14.09.2004

Transcribed By: Robert Nowak
Email:          www.unchallengedhate.de / www.japanische-kampfhoerspiele.de

-  - palm mute           /  - slide up to
\  - slide down to       ~  - vibrato
h  - hammer on           b  - Bend
p  - pull off            Suffixes for bend
t  - tap                 f  - full bend    h - half bend
ph - pinched harmonic    q  - quarter bend t - tap bend
*  - see comment         ^  - Hold bend    r release bend
x  - Stuccatto           ~  - vibrato bend
,  - slight palm mute    () - ghost note, sustained note
"  - tremolo note        <> - Trill

Tuning 3 half steps down

|------------------------------------------------------------|
|------------------------------------------------------------|
|------------------------------------------------------------|
|-----------------8/9--------11/12\10------------------------|
|-8---------------6/7---------9/10\8---------------4---------|
|---0-0-6-0-0-0-0-----0-0-0-0--------0-0-6-0-0-0-0---0-2-0-1-|
    - -   - - - -     - - - -        - -   - - - -   -   -
|---------------------------------------------------|
|---------------------------------------------------|
|---------------------------------------------------|
|-----------------8/9--------11/12\10----------9/12-|
|-8---------------6/7---------9/10\8-----------7/10-|
|---0-0-6-0-0-0-0-----0-0-0-0--------0-0-6-0-0------|
    - -   - - - -     - - - -        - -   - -
|-----------------------------------------------------------|
|-----------------------------------------------------------|
|-----------------------------------------------------------|
|-----------------8/9---------8-------------9/12-----12-----|
|-8-----7---------6/7---------6/8-----7-----7/10-----10-----|
|---0-0---0-0-0-0-----0-0-0-0-----0-0---0-0------0-0----0-0-|
    - -   - - - -     - - - -     - -   - -      - -    - -
|----4-times----|----------------------------------------------------------|
|---------------|----------------------------------------------------------|
|---------------|----------------------------------------------------------|
|---3-----2-----|---8-----7----------------------8-----7---------------3-5-|
|-3-------------|-7-------------7-8-10-7-8-10--7-------------7-8-10--0-1-3-|
|-1---1-1---1-1-|-5---5-5---5-5----------------5---5-5---5-5---------------|
      - -   - -       - -   - -                    - -   - -         - -
|-------------------------------------------------------|
|-------------------------------------------------------|
|-----------------------------------------------5-4/5-3-|
|-----------5-------5---5/7-------------5-------3-2/3-1-|
|-7-0-000-0-5-0-000-5-0-5/7-0-000-0-000-3-0-000-3-2/3-1-|
|-5-----------------------------------------------------|
    - --- -   - ---   -     - --- - ---   - ---
|-----------------------------------------------------------|
|-----------------------------------------------------------|
|-----------------------------------------------------------|
|-------------5-------5---5/7-------------------------------|
|-0-000-0-000-5-0-000-5-0-5/7-0-000-0-000-3-3h4p3-6-4h5p4-8-|
|-----------------------------------------5-------4-------6-|
  - --- - ---   - ---   -     - --- - ---
|-------------------------------------------------|
|-------------------------------------------------|
|-------------------------------------------------|
|-------------------------------------------------|
|-7---------4-5---------8-7---------7-8-10-7-8-10-|
|-5-0-000-0-2-3-0-000-0-6-5-0-000-0---------------|
    - --- -     - --- -     - --- - - -    - -
|-----------------------------------------------------------------|
|-----------------------------------------------------------------|
|-----------------------------------------------------------------|
|-----------------------------------------------------------------|
|-8-7---------4-5---------8-7---------7-8-10-7-8-10-10-7-8-10-7-8-|
|-6-5-0-000-0-2-3-0-000-0-6-5-0-000-0-----------------------------|
      - --- -     - --- -     - --- - - -    - -       - -    - -
|---------------------------------------------|
|---------------------------------------------|
|---------------------------------------------|
|---------------------------------------------|
|10-----9----5--------------------------------|
|-8-----7----3----0-000-0-000-0-000-0-000-000-|
                  - --- - --- - --- - --- ---
|------------------------------------------------|
|------------------------------------------------|
|------------------------------------------------|
|---------------8--------------------------------|
|-5/10-----9----6--------------------------------|
|-3/-8-----7---------0-000-0-000-0-000-0-000-000-|
                     - --- - --- - --- - --- ---
|-----------------------------------------------------------|
|-----------------------------------------------------------|
|-----------------------------------------------------------|
|-3-----2-----1/2-3-----2---------3-----2---------4---5---8-|
|-3-----2-----1/2-3-----2-----5---3-----2-----5---2---3---6-|
|---0-0---0-0-------0-0---0-0-3-0---0-0---0-0-3-0-----------|
    - -   - -       - -   - - - -   - -   - - - -
|-------------------------------------------------------------------|
|-------------------------------------------------------------------|
|-------------------------------------------------------------------|
|-5---4----------------------2-3-5-5---4---8------------------2-3-5-|
|-3---2---5--8-6---------4-5-------3---2---6--8-7---------4-5-------|
|---------3--6-5-0-000-0-2-3------------------6-5-0-000-0-2-3-------|
                 - --- -     - -                  - --- -     - -
|---------------------------------------------|
|---------------------------------------------|
|---------------------------------------------|
|-5---4---8-----------------------------------|
|-3---2---6-----------------------------------|
|-------------0-000-0-000-0-000-0-000-000-000-|
              - --- - --- - --- - --- --- ---

This is a very nice lesson to prove your right hand skills.
Try to play this song only with downstrokes.

  Visit MetalTabs.com for more metal tablature

bottom separator

Contact Us | Privacy Policy | Disclaimer | Legal Notice
Copyright © 2001-2014 MetalTabs.com. All Rights Reserved.