top separator

Home

Forum

What's New

Submit a Tab

FAQ

Links

Contact Us

Link to Us

MetalTabs.com logo

Bands

0-9

A

B

C

D

E

F

G

H

I

J

K

L

M

N

O

P

Q

R

S

T

U

V

W

X

Y

Z

Search

What

Where
 

Dying Fetus - "We Are Your Enemy" Guitar Tab

Plain Text Version
More Dying Fetus Tabs

Hits: 5311
Rated: 4.50 out of 5 (16 votes)
Updated: 2005-05-08 08:35:09

 

By:

younguitarist

sendpm.gif

email.gif

Important note
This tab is available online because we obtained explicit permission from Dying Fetus or their label.


#----------------------------------PLEASE NOTE---------------------------------#
#This file is the author's own work and represents their interpretation of the #
#song. You may only use this file for private study, scholarship, or research. #
#Unless specified otherwise, this is NOT an official tab from the band members.#
#------------------------------------------------------------------------------#

  Visit MetalTabs.com for more metal tablature
  
Artist: Dying Fetus
Album: Killing On Adrenaline
Song: We Are Your Enemy
Transcribed by:Alvaro Ramirez
Email me for any comments or corrections:lazyguitarist@musician.net
Tune guitars to C#
==========================================================

.  - palm mute           /  - slide up to     ah - Artificial harmonics
  - slide down to       ~  - vibrato
h  - hammer on           b  - Bend
p  - pull off            Suffixes for bend
t  - tap                 f  - full bend    h - half bend
ph - pinched harmonic    q  - quarter bend t - tap bend
*  - see comment         ^  - Hold bend    r release bend
x  - Staccato            ~  - vibrato bend
,  - slight palm mute    () - ghost note, sustained note
"  - tremolo note        <> - Trill


Intro
|-------------------|
|-------------------|
|-------------------|
|-------------------|8x
|-9-9-7-7-----------|
|---------10-10-6-6-|
  . . . . .  .  . .


Riff 1
|---------------------------------------------------------|
|---------------------------------------------------------|
|---------------------------------------------------------|
|-------------7--5--4--5----------------------------------|
|-5------------------------5-----------4h5p2h5p-1h4p1h4p--|
|-3--0"-2"-3"--------------3--0"-2"-3"--------------------|


Riff 2
|-----------------------------------------------|
|-----------------------------------------------|
|-----------------------------------------------|
|-------------7--5--4--5------------------------|
|-5---------------------------------------------|
|-3--0"-2"-3"-------------35-55-55-55-66-66-66--|
                          .. .. .. .. .. .. ..

Repeat
Riff 1
Riff 2

Riff 3
|-------------------------------------------------------|
|-------------------------------------------------------|
|-------------------------------------------------------|
|-------------------------------------------------------|
|---------------------------------------4-5-2-5-1-4-1-4-|
|-33-000-222-33-55-33-22-33-0-0-000-000-----------------|
     ... ...                . . ... ...

Riff 4
|-------------------------------------------------------------|
|-------------------------------------------------------------|
|-------------------------------------------------------------|
|-------------------------------------------------------------|
|----------------------------7-7-7-7-7-7-7-7--8-8-8-8-8-8-8-8-|
|-33-000-222-33-55-33-22-33--5-5-5-5-5-5-5-5--6-6-6-6-6-6-6-6-|
     ... ...                   . . . . . . .

Repeat
Riff 3
Riff 4
Riff 3
Riff 4

Riff 5 A (note: This riff may be wrong but it sounds ok.)
|-----------------------------------------|
|-----------------------------------------|
|-----------------------------------------|
|-----------------------------------------|
|-----------------------------------------|
|-0-0-2-3-5-0-3-4-6-0-0-3-2-0-2-4-5-0-0-1-|
  . . . . . . . . . . . . . . . . . . . .
       B
|---------------------------------------|
|---------------------------------------|
|---------------------------------------|
|---------------------------------------|
|---------------------------------7-8-7-|
|-6666555-0-0-5-0-3-5-0-0-6-0-0-6-5-6-5-|
  ....... . . . . . . . . . . . . . . .

       C
|-------------------------------------------------|
|-------------------------------------------------|
|-------------------------------------------------|
|-------------------------------------------------|
|-------------------------------------------------|
|-0-0-2-3-5-0-3-4-6-0-0-3-2-0-2-4-5-0-0-1-6666555-|
  . . . . . . . . . . . . . . . . . . . . .......

       D
|--------------------------------------------------|
|--------------------------------------------------|
|--------------------------------------------------|
|--------------------------------------------------|
|-----------------------------------------8-7-8-10-|
|-0-0-5-0-3-5-0-0-6-0-0-5-0-0-5-0-3-6-4-3-6-5-6-8--|
  . . . . . . . . . . . . . . . . . . . . . . . .

Riff 7
|----------------------------------------------------------|
|----------------------------------------------------------|
|----------------------------------------------------------|
|----------------------------------------------------------|4x
|-7-----6-----5-6-5-4-5-4-3-4--7-----6-----4-4-4-4-4-4-4-5-|
|-5-0-0-4-0-0-3-4-3-2-3-2-1-2--5-0-0-4-0-0-2-2-2-2-2-2-2-3-|
    . .   . . . . . . . . . .    . .   . . . . . . . . . .

Riff 8
|---------------------------------|
|---------------------------------|
|---------------------------------|
|---------------------------------|
|-4-----4-5---------6-5-4-5-4-5-4-|
|-2-0-0-2-3-0-0-0-0-4-3-2-3-2-3-2-|
    . .   . . . . . . . . . . . .

Riff 9
|------------------------------|
|------------------------------|
|------------------------------|
|------------------------------|
|-4-----4-5---------6-5-4-5-4--|
|-2-0-0-2-3-0-0-0-0-4-3-2-3-2--|
    . .   . . . . . . . . . .

Repeat
Riff 8

Riff 10
|--------------------------------|
|-----------------------------ph-|
|-----------------------------3--|
|--------------------------------|
|-4-----4-5---------6-5-4-5-4----|
|-2-0-0-2-3-0-0-0-0-4-3-2-3-2----|
    . .   . . . . . . . . . .

Repeat
Riff 9

Riff 11
|--------------------------------|
|--------------------------------|
|--------------------------------|
|-----------------------------ph-|
|-4-----4-5---------6-5-4-5-4-3--|
|-2-0-0-2-3-0-0-0-0-4-3-2-3-2----|
    . .   . . . . . . . . . .

Repeat
Riff 8

Riff 12
|-----------------------------ph-/-|
|-----------------------------3-/--|
|------------------------------/---|
|----------------------------------|
|-4-----4-5---------6-5-4-5-4------|
|-2-0-0-2-3-0-0-0-0-4-3-2-3-2------|
    . .   . . . . . . . . . .

Riff 13
|------------------------------------------------|
|------------------------------------------5-6-8-|
|------------------------------------5-6-8-------|
|------------------------------5-6-8-------------|2x
|------------------------5-6-8-------------------|
|-566-555-566-555--5-6-8-------------------------|
  ... ... ... ...  , , , , , , , , , , , , , , ,

Riff 14
|-------------------------------------------------|
|-------------------------------------------5-6-8-|
|-------------------------------------5-6-8-------|
|-------------------------------5-6-8-------------|2x
|-------------------------5-6-8-------------------|
|-/6666555566663333-5-6-8-------------------------|
                    , , , , , , , , , , , , , , ,

Riff 15
|-------------------------------|
|-------------------------5-6-8-|
|-------------------5-6-8-------|
|-------------5-6-8-------------|3x
|-------5-6-8-------------------|
|-5-6-8-------------------------|
  , , , , , , , , , , , , , , ,

Riff 16
|----------------------------------------|
|----------------------------------------|
|----------------------------------------|
|----------------------------------------|8x
|-7--------5---------------------------8-|
|-5-000000-3-000000-333333222222000000-6-|
    ......   ...... ..................

Riff 17 under solo
|--------------------------|
|--------------------------|
|--------------------------|
|--------------------------|
|-7---8-7---8-7---8-7---2--|
|-5---6-5---6-5---6-5---0--|
                        x

Guitar solo (John Gallagher)                                  1
|-------------------------------------------5-6-5----------\-----|
|-------------------------------------5-7-8-------7-5-7bfr--\(7)-|
|-------------------------------5-7-8------------------------\---|
|-------------5-7-8-7-----5-7-8----------------------------------|
|-------5-7-8---------8-7----------------------------------------|
|-5-7-8----------------------------------------------------------|


|----19-17------------------------------------------------------------/22bf-|
|-21-------21-20-22-21-19---------------------------------------------------|
|-------------------------21-20-19-20-21-20-19-18---------------------------|
|-------------------------------------------------21-19-17-16-17------------|
|----------------------------------------------------------------18-19------|
|---------------------------------------------------------------------------|


Riff 18
|----------------------------------------------|
|----------------------------------------------|
|----------------------------------------------|
|----------------------------------------------|2x
|-8-7--------------8-7-3-3-3-3-3-3-3-3-3-3-3-3-|
|-6-5-000000000000-6-5-1-1-1-1-1-1-1-1-1-1-1-1-|
      ............     . . . . . . . . . . . .

Riff 19
|------------------------------|
|------------------------------|
|------------------------------|
|------------------------------|4x
|-8-7--2-2-2-2-2-2--2-2-2-3-2--|
|-6-5--0-0-0-0-0-0--0-0-0-1-0--|
       . . . . . .  . . . . .

Repeat
Riff 18 2x
Riff 19 4x
Riff 15
Riff 1
Riff 2
Riff 1
Riff 2

The end

  Visit MetalTabs.com for more metal tablature

bottom separator

Contact Us | Privacy Policy | Disclaimer | Legal Notice
Copyright © 2001-2014 MetalTabs.com. All Rights Reserved.