top separator

Home

Forum

What's New

Submit a Tab

FAQ

Links

Contact Us

Link to Us

MetalTabs.com logo

Bands

0-9

A

B

C

D

E

F

G

H

I

J

K

L

M

N

O

P

Q

R

S

T

U

V

W

X

Y

Z

Search

What

Where
 

Judas Iscariot - "The Cold Earth Slept Below" Guitar Tab

Plain Text Version
More Judas Iscariot Tabs

Hits: 5912
Rated: 3.33 out of 5 (3 votes)
Updated: 2005-05-07 10:03:02

 

By:

velzevul

sendpm.gif

email.gif

Important note
We did our best to reach Judas Iscariot and ask for their permission to publish this tab. Unfortunately they did not respond to our requests or we could not find a way to contact them. This tab is available online until Judas Iscariot tells us to take it down.


#----------------------------------PLEASE NOTE---------------------------------#
#This file is the author's own work and represents their interpretation of the #
#song. You may only use this file for private study, scholarship, or research. #
#Unless specified otherwise, this is NOT an official tab from the band members.#
#------------------------------------------------------------------------------#

  Visit MetalTabs.com for more metal tablature
  
====================================================
 Comments and Corrections ---> lord_velzevul@bk.ru
====================================================
                  Tuning: Standart
====================================================
                  band: JUDAS ISCARIOT
                  song: THE COLD EARTH SLEPT BELOW
                 album: THE COLD EARTH SLEPT BELOW (Re-Release)
                  year: 2002
             tabbed by: ^MorbiD^
====================================================
                    ~ : let ring
                    (): fast picking
====================================================
Riff1
|-----------------------------------------|
|-----------------------------------------|
|-----9-----------------9--------------10-|
|---9---9-------------9---9---------10----|
|-7-----------------7-------------8-------|
|---------(676-565)---------(676)---------|

Riff2
|-----------------------------|
|-----------------------------|
|-----7-------3-------------5-|
|---7---7---3-------3-----5---|
|-5-------1-------3---3-3-----|
|---------------1-------------|

Time 2:48 - hit the D5 chord
|-5~-|
|-6~-|
|-7~-|
|-7~-|
|-5~-|
|----|

Riff3
|-4~-4-----|-5~-5-----|
|-5~---5---|-6~---6---|
|-6~-----6-|-7~-----7-|
|-6~-------|-7~-------|
|-4~-------|-5~-------|
|----------|----------|

  Visit MetalTabs.com for more metal tablature

bottom separator

Contact Us | Privacy Policy | Disclaimer | Legal Notice
Copyright © 2001-2014 MetalTabs.com. All Rights Reserved.