top separator

Home

Forum

What's New

Submit a Tab

FAQ

Links

Contact Us

Link to Us

MetalTabs.com logo

Bands

0-9

A

B

C

D

E

F

G

H

I

J

K

L

M

N

O

P

Q

R

S

T

U

V

W

X

Y

Z

Search

What

Where
 

Kaoteon - "Decreptitude" Guitar Tab

Plain Text Version
More Kaoteon Tabs

Hits: 3319
Rated: 4.50 out of 5 (2 votes)
Updated: 2004-09-28 12:37:21

 

By:

sendpm.gif

email.gif

Important note
This tab is available online because we obtained explicit permission from Kaoteon or their label.


#----------------------------------PLEASE NOTE---------------------------------#
#This file is the author's own work and represents their interpretation of the #
#song. You may only use this file for private study, scholarship, or research. #
#Unless specified otherwise, this is NOT an official tab from the band members.#
#------------------------------------------------------------------------------#

  Visit MetalTabs.com for more metal tablature
  
KAOTEON - Decrepitude
                    From the Demo - Provenance of Hatred
                        Copyright - KAOTEON
                  Courtesy of Unsung Heroes Records 2004




For Questions, Comments or corrections contact Apocalypse at layini@hotmail.com

Normal Tuning

Transcribed by Zak (Apocalypse).


Riff 1 x3 the last two times fast picking.
E|-----------------|----------------|-----------------|----------------|
B|-----------------|----------------|-----------------|----------------|
G|-----------------|----------------|-----------------|----------------|
D|-----------------|----------------|-----------------|-10-10-9--------|
A|-2---7-9-10-9-7--|-5-5-7----------|-2---7-9-10-9-7--|-12-12-10-------|
E|-0---0-0-0--0-0--|-0-0-0----------|-0---0-0-0--0-0--|-0--0--0--------|



E|-----------------|----------------|-----------------|----------------|
B|-----------------|----------------|-----------------|----------------|
G|-----------------|----------------|-----------------|----------------|
D|-----------------|----------------|-----------------|----------------|
A|-2---7-9-10-9-7--|-5-5-7----------|-2---7-9-10-9-7--|-12-12-14-------|
E|-0---0-0-0--0-0--|-0-0-0----------|-0---0-0-0--0-0--|-0--0--0--------|



E|-----------------|----------------|-----------------|----------------|
B|-----------------|----------------|-----------------|----------------|
G|-----------------|----------------|-----------------|----------------|
D|-----------------|----------------|-----------------|----------------|
A|-15--14-12-14----|-14-15-14-12--10|-12--10-9-10-----|10p-9--5-7------|
E|-0---0--0--0-----|-0--0--0--0---0-|-0---0--0-0------|-0--0--0-0------|



Riff 2  Tremolo picking x2
E|-----------------|----------------|-----------------|----------------|
B|-----------------|----------------|-----------------|----------------|
G|-----------------|----------------|-----------------|----------------|
D|-5----4---2------|2-5----4----4---|4-5-----9------9-|10--8--9--------|
A|-7----5---3------|3-3----3----2---|2-3-----7------7-|8---6--7--------|
E|-----------------|----------------|-----------------|----------------|


Riff 3 Tremolo picking x2
E|-----------------|----------------|-----------------|----------------|
B|-----------------|----------------|-----------------|----------------|
G|-----------------|----------------|-----------------|----------------|
D|-9---------------|-10-------------|-7---------------|-9------10------|
A|-10--------------|-12-------------|-9---------------|-10-----12------|
E|-----------------|----------------|-----------------|----------------|



Riff 4 Tremolo picking x2
E|-----------------|----------------|-----------------|----------------|
B|-----------------|----------------|-----------------|----------------|
G|-----------------|----------------|-----------------|----------------|
D|-9---------------|-7--------------|-7--9-10---9--7--|-9--------------|
A|-10--------------|-9--------------|-9-10-12---10-9--|-10-------------|
E|-----------------|----------------|-----------------|----------------|



Riff 2  Tremolo picking x2
E|-----------------|----------------|-----------------|----------------|
B|-----------------|----------------|-----------------|----------------|
G|-----------------|----------------|-----------------|----------------|
D|-5----4---2------|2-5----4----4---|4-5-----9------9-|10--8--9--------|
A|-7----5---3------|3-3----3----2---|2-3-----7------7-|8---6--7--------|
E|-----------------|----------------|-----------------|----------------|



Riff 5 Arpegio
E|-----------------|----------------|-----------------|----------------|
B|-----------------|----------------|-----------------|----------------|
G|-------4---------|-------4--------|-------5---------|-------5--------|
D|-----2---2-------|-----2---2------|-----3---3-------|-----3---3------|
A|---2-------2-----|---2-------2----|---3-------3-----|---3-------3----|
E|-0----------0----|-0-----------0--|-0-----------0---|-0-----------0--|




E|-----------------|----------------|-----------------|----------------|
B|-----------------|----------------|-----------------|----------------|
G|-------4---------|-------4--------|-------3---------|-------3--------|
D|-----2---2-------|-----2---2------|-----1---1-------|-----1---1------|
A|---2-------2-----|---2-------2----|---1-------1-----|---1-------1----|
E|-0----------0----|-0-----------0--|-0-----------0---|-0-----------0--|




E|-----------------|----------------|-----------------|----------------|
B|-----------------|----------------|-----------------|----------------|
G|-------4---------|-------4--------|-------5---------|-------5--------|
D|-----2---2-------|-----2---2------|-----3---3-------|-----3---3------|
A|---2-------2-----|---2-------2----|---3-------3-----|---3-------3----|
E|-0----------0----|-0-----------0--|-0-----------0---|-0-----------0--|




E|-----------------|----------------|-----------------|----------------|
B|-----------------|----------------|-----------------|----------------|
G|-------4---------|-------4--------|-------3---------|-------3--------|
D|-----2---2-------|-----2---2------|-----1---1-------|-----1---1------|
A|---2-------2-----|---2-------2----|---1-------1-----|---1-------1----|
E|-0----------0----|-0-----------0--|-0-----------0---|-0-----------0--|


E|-----------------|----------------|-----------------|----------------|
B|-----------------|----------------|-----------------|----------------|
G|-------9---------|-------9--------|-------10--------|-------10-------|
D|-----7---7-------|-----7---7------|-----8----8------|-----8----8-----|
A|---7-------7-----|---7-------7----|---8--------8----|---8--------8---|
E|-0----------0----|-0-----------0--|-0------------0--|-0------------0-|




E|-----------------|----------------|-----------------|----------------|
B|-----------------|----------------|-----------------|----------------|
G|-------9---------|-------9--------|-------10--------|-------10-------|
D|-----7---7-------|-----7---7------|-----8----8------|-----8----8-----|
A|---7-------7-----|---7-------7----|---8--------8----|---8--------8---|
E|-0----------0----|-0-----------0--|-0------------0--|-0------------0-|


E|-----------------|----------------|-----------------|----------------|
B|-----------------|----------------|-----------------|----------------|
G|-------4---------|-------4--------|-------5---------|-------5--------|
D|-----2---2-------|-----2---2------|-----3---3-------|-----3---3------|
A|---2-------2-----|---2-------2----|---3-------3-----|---3-------3----|
E|-0----------0----|-0-----------0--|-0-----------0---|-0-----------0--|




E|-----------------|----------------|-----------------|----------------|
B|-----------------|----------------|-----------------|----------------|
G|-------4---------|-------4--------|-------3---------|-------3--------|
D|-----2---2-------|-----2---2------|-----1---1-------|-----1---1------|
A|---2-------2-----|---2-------2----|---1-------1-----|---1-------1----|
E|-0----------0----|-0-----------0--|-0-----------0---|-0-----------0--|



E|-----------------|----------------|-----------------|----------------|
B|-----------------|----------------|-----------------|----------------|
G|-------4---------|-------4--------|-------5---------|-------5--------|
D|-----2---2-------|-----2---2------|-----3---3-------|-----3---3------|
A|---2-------2-----|---2-------2----|---3-------3-----|---3-------3----|
E|-0----------0----|-0-----------0--|-0-----------0---|-0-----------0--|




E|-----------------|----------------|-----------------|----------------|
B|-----------------|----------------|-----------------|----------------|
G|-------4---------|-------4--------|-------3---------|-------3--------|
D|-----2---2-------|-----2---2------|-----1---1-------|-----1---1------|
A|---2-------2-----|---2-------2----|---1-------1-----|---1-------1----|
E|-0----------0----|-0-----------0--|-0-----------0---|-0-----------0--|


Riff 6 x4 the last three times fast picking.
E|-----------------|----------------|-----------------|----------------|
B|-----------------|----------------|-----------------|----------------|
G|-----------------|----------------|-----------------|----------------|
D|-2------------3--|-2-----------3--|-2------------3--|--5----5----5---|
A|-2------------3--|-2-----------3--|-2------------3--|--3----3----3---|
E|-0---------------|-0--------------|-0---------------|----------------|




E|-----------------|----------------|-----------------|----------------|
B|-----------------|----------------|-----------------|----------------|
G|-----------------|----------------|-----------------|----------------|
D|-2------------3--|-2-----------3--|-2------------3--|--4----4----4---|
A|-2------------3--|-2-----------3--|-2------------3--|--3----3----3---|
E|-0---------------|-0--------------|-0---------------|----------------|



Riff 7 Tremolo picking x4
E|-----------------|----------------|-----------------|----------------|
B|-----------------|----------------|-----------------|----------------|
G|-----------------|----------------|-----------------|----------------|
D|-----------4-5---|-7-5------------|-2-4-------------|-5-7------------|
A|-2---------2-3---|-5-3------------|-0-2-------------|-3-5------------|
E|-0---------------|----------------|-----------------|----------------|

Ending E riff and let it fade.
E|-----------------|
B|-----------------|
G|-----------------|
D|-----------------|
A|-2---------------|
E|-0---------------|

  Visit MetalTabs.com for more metal tablature

bottom separator

Contact Us | Privacy Policy | Disclaimer | Legal Notice
Copyright © 2001-2014 MetalTabs.com. All Rights Reserved.