top separator

Home

Forum

What's New

Submit a Tab

FAQ

Links

Contact Us

Link to Us

MetalTabs.com logo

Bands

0-9

A

B

C

D

E

F

G

H

I

J

K

L

M

N

O

P

Q

R

S

T

U

V

W

X

Y

Z

Search

What

Where
 

Brutal Truth - "Birth Of Ignorance" Guitar Tab

Plain Text Version
More Brutal Truth Tabs

Hits: 7922
Rated: 4.29 out of 5 (7 votes)
Updated: 2004-09-28 12:36:07

 

By:

DEVASTATOR23

sendpm.gif

email.gif

Important note
This tab is available online because we obtained explicit permission from Brutal Truth or their label.


#----------------------------------PLEASE NOTE---------------------------------#
#This file is the author's own work and represents their interpretation of the #
#song. You may only use this file for private study, scholarship, or research. #
#Unless specified otherwise, this is NOT an official tab from the band members.#
#------------------------------------------------------------------------------#

  Visit MetalTabs.com for more metal tablature
  
B i r t h  o f  I g n o r a n c e
      from "Extreme conditions demand exrtreme responses"
                        24.09.2004.


  Song: Birth of Ignorance
  Bend: Brutal Truth
  Album: Extreme conditions demand extreme responses
  Copyright(c) Earache 1992
  Version 1.0


  Transcribed By: DEVASTATOR23
  For any coment, suggestion or question contact:
  quaddevastation@yahoo.com

    .  - palm mute           /  - slide up to
  \  - slide down to       ~  - vibrato
  h  - hammer on           b  - Bend
  p  - pull off            Suffixes for bend
  t  - tap                 f  - full bend    h - half bend
  ph - pinched harmonic    q  - quarter bend t - tap bend
  *  - see comment         ^  - Hold bend    r release bend
  x  - Stuccatto           ~  - vibrato bend
  ,  - slight palm mute    () - ghost note, sustained note
  "  - tremolo note        <> - Trill

  Tuning:DGCFAD
  (tune EADGBE to DGCFAD,every string by one whole note down)


  Riff:1)
 |--------------------------------------------------|
 |--------------------------------------------------|
 |--------------------------------------------------|
 |-2---------------2---------------2-2--------------|
 |-2---------------2---------------2-2--------------|
 |-0---------------0---------------0-0--------------|


  Riff:2)                               Play 8 times
 |--------------------------------------------------|
 |--------------------------------------------------|
 |--------------------------------------------------|Gtr I
 |---1h2p1-------3h4p3-------2h3p2------------------|
 |-2-------1h2p1-------4h5p4-------3h4p3--6-8-9--3--|
 |-0--------------------------------------4-6-7--1--|
 |                                                  |
 |Riff:3)    Play 4 times, then play Riff:3) 4 times|
 |--------------------------------------------------|
 |--------------------------------------------------|
 |--------------------------------------------------|
 |-2------------------------------------------------|Gtr II
 |-2--------------------------------------6-8-9--3--|
 |-0--------------------------------------4-6-7--1--|

  Riff:4) Play 16 times
 |----------------------|
 |----------------------|
 |---------8/9----------|
 |---------6/7--7\6/7---|
 |-----8/9------5\4/5---|
 |-0---6/7--------------|


  Riff:5) Play 4 times
 |------------------------------------------------|
 |------------------------------------------------|
 |------------------------------------------------|
 |---1h2p1-------3h4p3-------2h3p2----------4-----|
 |-2-------1h2p1-------4h5p4-------3h4p3--6-2--3--|
 |-0--------------------------------------4----1--|

  Play Riff:4) 16 times
  Play Riff:5)  4 times

  Riff:6 Play 8 times
 |-----------------------------------|
 |-----------------------------------|
 |-----------------------------------|
 |-8--8-8--9-7-8----8--8-8--9-7--8---|
 |-6--6-6--7-5-6----6--6-6--7-5--6---|
 |---------------0-------------------|
                 .

  Riff:7 Play 4 times
 |---------------------------|
 |---------------------------|
 |---------------------------|
 |-------4--3--6--3--9---3-5-|
 |-2--5--2--1--4--5--7---1-3-|
 |-0--3----------------------|
   ,  ,  ,  ,  ,  ,      , ,

  Play Riff:4) 8 times
  Play Riff:5) 4 times

  END.

  Visit MetalTabs.com for more metal tablature

bottom separator

Contact Us | Privacy Policy | Disclaimer | Legal Notice
Copyright © 2001-2014 MetalTabs.com. All Rights Reserved.