top separator

Home

Forum

What's New

Submit a Tab

FAQ

Links

Contact Us

Link to Us

MuSpy.com

MetalTabs.com logo

Bands

0-9

A

B

C

D

E

F

G

H

I

J

K

L

M

N

O

P

Q

R

S

T

U

V

W

X

Y

Z

Search

What

Where
 

Storm (NO) - "Oppi Fjellet" Guitar Tab

Plain Text Version
More Storm (NO) Tabs

Hits: 3943
Rated: 2.50 out of 5 (6 votes)
Updated: 2004-09-20 17:50:19

 

By:

sendpm.gif

email.gif

Important note
This tab is available online because we obtained explicit permission from Storm (NO) or their label.


#----------------------------------PLEASE NOTE---------------------------------#
#This file is the author's own work and represents their interpretation of the #
#song. You may only use this file for private study, scholarship, or research. #
#Unless specified otherwise, this is NOT an official tab from the band members.#
#------------------------------------------------------------------------------#

  Visit MetalTabs.com for more metal tablature
  
Band:  Storm
Album: Nordavind
Song:  Oppi Fjellet

Copyright (c)  Moonfog 1995
Version 1.0 -  09-19-04

Transcribed By: Chris
Email:          sadomasochist@hotmail.com
--------------------------------------------------------------------------
Storm is...
Herr Nagell (a.k.a. Fenriz): drums, vocals
Kari Rueslatten: vocals
Sigurd Wongraven (a.k.a. Satyr): vocals, guitars, bass, synth

Check http://www.metal-archives.com/ for more info.

This is a fairly simple, but beautiful song. I believe this is tabbed
correctly, or at least very close. I tried to throw in measure breaks
where convenient. Please e-mail me if you find a mistake. Enjoy!
--------------------------------------------------------------------------
/  - slide up to                \  - slide down to

Tuning E A D G B E

RIFF A
|---------------------|--------------------|
|---------------------|--------------------|
|---------------------|--------------------|
|6-7-9-10--9-7-9-6-0--|6-0-7--7--6-0-7--7--| 2x
|4-5-7-8---7-5-7-4-0--|4-0-5--5--4-0-5--5--|
|---------------------|--------------------|
                        "Op-pi   "Op-pi
		        fjel-let" fjel-let"

|----------------------|------------------------|--------------------|
|----------------------|------------------------|--------------------|
|----------------------|------------------------|--------------------|
|6-7-9-10--14-14-12-9--|12-10-9-7-9-10-7-9-6-0--|6-0-7--7--6-0-7--7--|
|4-5-7-8---12-12-10-7--|10-8--7-5-7-8--5-7-4-0--|4-0-5--5--4-0-5--5--|
|----------------------|------------------------|--------------------|
					          "Op-pi     "Op-pi
                                                  fjel-let"  fjel-let"

FILL 1
|--------------------|
|--------------------|
|--------------------|
|6-0-7--7--6-0-7--7--|
|4-0-5--5--4-0-5--5--|
|--------------------|
  "Op-pi    "Op-pi
  fjel-let" fjel-let"

RIFF B
|---------------------------|----------------------|
|---------------------------|----------------------|
|---------------------------|----------------------|
|0--6/7-7-7--7/9-9/10-10-10-|14-14-14-12-12-12-12\9|
|0--4/5-5-5--5/7-7/8--8--8--|12-12-12-10-10-10-10\7|
|---------------------------|----------------------|

|-----------------------------|
|-----------------------------|
|-----------------------------|
|-9-9/10-10-10--7-7/9-9-9--6/7|
|-7-7/8--8--8---5-5/7-7-7--4/5|
|-----------------------------|

FILL 2
|---|
|---|
|---|
|7--|
|5--|
|---|

Played in this order:
(0:00) RIFF A (4X) (First 3 notes on D-string not played on 1x)
(1:22) FILL 1 (1X)
(1:25) RIFF B (4X)
(2:00) FILL 2 (1X)
(2:00) FILL 1 (4X)

(2:05) RIFF A (4X)
(2:45) FILL 1 (1X)
(2:48) RIFF B (16X) (Pounding on snare in 9X-12X)
(3:57) FILL 2 (1x)
END

  Visit MetalTabs.com for more metal tablature

bottom separator

Contact Us | Privacy Policy | Disclaimer | Legal Notice
Copyright © 2001-2014 MetalTabs.com. All Rights Reserved.