top separator

Home

Forum

What's New

Submit a Tab

FAQ

Links

Contact Us

Link to Us

MetalTabs.com logo

Bands

0-9

A

B

C

D

E

F

G

H

I

J

K

L

M

N

O

P

Q

R

S

T

U

V

W

X

Y

Z

Search

What

Where
 

Napalm Death - "All Intensive Purposes" Guitar Tab

Plain Text Version
More Napalm Death Tabs

Hits: 3511
Updated: 2005-12-30 01:19:19

 

By:

Daniil

sendpm.gif

email.gif

Important note
This tab is available online because we obtained explicit permission from Napalm Death or their label.


#----------------------------------PLEASE NOTE---------------------------------#
#This file is the author's own work and represents their interpretation of the #
#song. You may only use this file for private study, scholarship, or research. #
#Unless specified otherwise, this is NOT an official tab from the band members.#
#------------------------------------------------------------------------------#

  Visit MetalTabs.com for more metal tablature
  
NAPALM DEATH-All Intensive Purposes
Breed To Breathe-1997
Copyright Earache Records
Transcribed by Daniil Laletin
e-mail: dlaletin@mail.ru
version 2.0 October 2005

All corrections are welcome.

  " - tremolo
 / - slide down
 \ - slide up
 . - palm mute
 ~ - long sound
 x - rest
 p - pull off
 h - hammer on
 tr - trill
 () - ghost note, sustained note
 <> - let ring

Tuning from low to high: C# F# B E G# C#
========================================

 Riff 1a, 1b (1a - with light palm muting, 1b - without)
|-----------------------------------------------------------------|
|-----------------------------------------------------------------|
|-----------------------------------------------------------------|
|-3-3-3-6-2-2-2-2-------3-2-2-2-2---------------------------------|
|-1-1-1-4-0-0-0-0-4-4-4-1-0-0-0-0-3-3-3-4-4-4-4-4-2-2-2-4-3-3-3-3-|
|-----------------2-2-2-----------1-1-1-2-2-2-2-2-0-0-0-2-1-1-1-1-|


 Riff 2
|-----------------------|     |-------------------|
|-----------------------|     |-------------------|
|-----3-----------3-----|     |-----3-----------3-|
|-----1-----------1-----|x3   |-----1-----------1-|
|-3-2---------3---------|     |-3-2---------3---*-|
|-1-0---0-0-0-1-0---0-0-|     |-1-0---0-0-0-1-0---|
            .   .                         .   .
 * - this is harmonics by first guitar


 Riff 3
|-------------------------|
|-------------------------|
|-10-10-10/11-10-10-10/11-|
|-------------------------|
|--8--8--8/-9--8--8--8/-9-|
|-------------------------|


 Riff 4
|------------------------------------------------------|
|------------------------------------------------------|
|------------------------------------------------------|
|------------------------------------------------------|
|-4-4-4-2-4x----4-3-2-4x----4-4-4-2-4x---5-5-5-5-5-5-7-|
|-2-2-2-0-2x----2-1-0-2x----2-2-2-0-2x---3-3-3-3-3-3-5-|

|------------------------------------------------------|
|------------------------------------------------------|
|------------------------------------------------------|
|------------------------------------------------------|
|-4-4-4-2-4x----4-3-2-4x----4-4-4-2-4x---5-5-5-5-5-5-3-|
|-2-2-2-0-2x----2-1-0-2x----2-2-2-0-2x---3-3-3-3-3-3-1-|


 Riff 5
|-----------------------------------------------------------------|
|-----------------------------------------------------------------|
|-----------------------------------------------------------------|
|-----------------------------------------------------------------|
|-4-4-4-2-4-2-2-2-2-4-3-2-4-2-2-2-4-4-4-2-4-2-2-2-2-5-5-5-5-5-5-7-|
|-2-2-2-0-2-0-0-0-0-2-1-0-2-0-0-0-2-2-2-0-2-0-0-0-0-3-3-3-3-3-3-5-|
            . . . .         . . .           . . . .
|-----------------------------------------------------------------|
|-----------------------------------------------------------------|
|-----------------------------------------------------------------|
|-----------------------------------------------------------------|
|-4-4-4-2-4-2-2-2-2-4-3-2-4-2-4-3-4-4-4-2-4-2-2-2-2-5-5-5-5-5-5-3-|
|-2-2-2-0-2-0-0-0-0-2-1-0-2-0-2-1-2-2-2-0-2-0-0-0-0-3-3-3-3-3-3-1-|
            . . . .                         . . . .

  Visit MetalTabs.com for more metal tablature

bottom separator

Contact Us | Privacy Policy | Disclaimer | Legal Notice
Copyright © 2001-2014 MetalTabs.com. All Rights Reserved.