top separator

Home

Forum

What's New

Submit a Tab

FAQ

Links

Contact Us

Link to Us

MetalTabs.com logo

Bands

0-9

A

B

C

D

E

F

G

H

I

J

K

L

M

N

O

P

Q

R

S

T

U

V

W

X

Y

Z

Search

What

Where
 

Gehenna - "Perfect Hate" Guitar Tab

Plain Text Version
More Gehenna Tabs

Hits: 2663
Updated: 2004-09-18 06:28:18

 

By:

sendpm.gif

email.gif

Important note
This tab is available online because we obtained explicit permission from Gehenna or their label.


#----------------------------------PLEASE NOTE---------------------------------#
#This file is the author's own work and represents their interpretation of the #
#song. You may only use this file for private study, scholarship, or research. #
#Unless specified otherwise, this is NOT an official tab from the band members.#
#------------------------------------------------------------------------------#

  Visit MetalTabs.com for more metal tablature
  
Band: Gehenna
Album: Murder
Song: Perfect Hate

Copyright (c) Moonfog 2000
Version 1.0 - September 16, 2004

Transcribed By: Adimiron Black (Jordan Denison)
Email: adimironblack@hotmail.com


.  - palm mute           /  - slide up to
\  - slide down to       ~  - vibrato
h  - hammer on           b  - Bend
p  - pull off            Suffixes for bend
t  - tap                 f  - full bend    h - half bend
ph - pinched harmonic    q  - quarter bend t - tap bend
*  - see comment         ^  - Hold bend    r release bend
x  - Stuccatto           ~  - vibrato bend
,  - slight palm mute    () - ghost note, sustained note
"  - tremolo note        <> - Trill


Tuning B E A D G B (2.5 steps down)


Riff 1 (x2)

|--------------------------------------------------|
|--------------------------------------------------|
|--------------------------------------------------|
|-4---5-4---5/6\5-4---5-4--5--4--------------------|
|-4---5-4---5/6\5-4---5-4--4--3--------------------|
|-2---3-2---3/4\3-2---3-2--------------------------|


Riff 2 (x4)

|--------------------------------------------------|
|--------------------------------------------------|
|--------------------------------------------------|
|-4---7-6-7-6-7-6-7-6--3--3--3---------------------|
|-4------------------------------------------------|
|-2------------------------------------------------|


Riff 1 (x2


Riff 3 (x6)

|--------------------------------------------------|
|--------------------------------------------------|
|--------------------------------------------------|
|--------------------------------------------------|
|------5---4-----5p4p3-----------------------------|
|-2222---2---222-----------------------------------|
  ....   .   ...


Riff 4 (x4)

|--------------------------------------------------|
|--------------------------------------------------|
|--------------------------------------------------|
|--------------------------------------------------|
|----------------4---------------------------------|
|-2222-2222-2222-----------------------------------|
  .... .... ....


Riff 5 (x4)

|--------------------------------------------------|
|--------------------------------------------------|
|--------------------------------------------------|
|------7-------------------------------------------|
|--------------------------------------------------|
|-2222---22225432----------------------------------|
  ....   ........


Riff 6 (x4)

|--------------------------------------------------|
|--------------------------------------------------|
|--------------------------------------------------|
|------7---6---------6---5-------------------------|
|------7---6---------6---5-------------------------|
|------5---4---------4---3-------------------------|


Riff 3 (x4)
Riff 4 (x4)


Riff 7 (x1)

|---------------------------------------------------------|
|---------------------------------------------------------|
|---------------------------------------------------------|
|-4--4-5--44-4-5-55-5-5-54-4--4-5--44-4-5-88-8-85-54------|
|-4--4-5--44-4-5-55-5-5-54-4--4-5--44-4-5-88-8-85-54------|
|-2--2-3--22-2-3-33-3-3-32-2--2-3--22-2-3-66-6-63-32------|


Riff 8 (x2)

|---------------------------------------------------------|
|---------------------------------------------------------|
|---------------------------------------------------------|
|-4--4-5--44-4-5-55-5-5-54-4--4-5--44-4-5-88-8-85-54------|
|-4--4-5--44-4-5-55-5-5-54-4--4-5--44-4-5-88-8-85-54------|
|-2--2-3--22-2-3-33-3-3-32-2--2-3--22-2-3-66-6-63-32------|

|---------------------------------------------------------|
|---------------------------------------------------------|
|---------------------------------------------------------|
|-4--4-5--44-4-5-55-5-5x---4--4-5--44-4-5-88-8-85-54------|
|-4--4-5--44-4-5-55-5-5x---4--4-5--44-4-5-88-8-85-54------|
|-2--2-3--22-2-3-33-3-3x---2--2-3--22-2-3-66-6-63-32------|


Riff 3 (x4)
Riff 4 (x4)
Riff 5 (x4)
Riff 7 (x1)


End

|--------------------------------------------------------|
|--------------------------------------------------------|
|--------------------------------------------------------|
|-4---4----------4-------------(4)------------(4)--------|
|-4---4----------4-------------(4)------------(4)--------|
|-2---3----------2-------------(2)------------(2)--------|



This is my first tab, so any corrections and comments are
welcome.  There are a few weird lead parts that I didn't
tab because I couldn't hear them very well.  Also, this
song was probably played with C# tuning, but my guitar is
in B, so that's why it's tabbed in B.

  Visit MetalTabs.com for more metal tablature

bottom separator

Contact Us | Privacy Policy | Disclaimer | Legal Notice
Copyright © 2001-2014 MetalTabs.com. All Rights Reserved.