top separator

Home

Forum

What's New

Submit a Tab

FAQ

Links

Contact Us

Link to Us

MuSpy.com

MetalTabs.com logo

Bands

0-9

A

B

C

D

E

F

G

H

I

J

K

L

M

N

O

P

Q

R

S

T

U

V

W

X

Y

Z

Search

What

Where
 

Necrophagia - "Bloodfreak" Guitar Tab

Plain Text Version
More Necrophagia Tabs

Hits: 4871
Rated: 4.62 out of 5 (8 votes)
Updated: 2004-09-17 18:01:48

 

By:

DEVASTATOR23

sendpm.gif

email.gif

Important note
We did our best to reach Necrophagia and ask for their permission to publish this tab. Unfortunately they did not respond to our requests or we could not find a way to contact them. This tab is available online until Necrophagia tells us to take it down.


#----------------------------------PLEASE NOTE---------------------------------#
#This file is the author's own work and represents their interpretation of the #
#song. You may only use this file for private study, scholarship, or research. #
#Unless specified otherwise, this is NOT an official tab from the band members.#
#------------------------------------------------------------------------------#

  Visit MetalTabs.com for more metal tablature
  
Band:  Necrophagia
Album: Holocausto de la Morte
Song:  Bloodfreak

Copyright (c)  (Phantom) (1998)
Version 1.0  - 16.10.2004.

Transcribed By: DEVASTATOR23
Email:          Quaddevastation@yahoo.com


.  - palm mute           /  - slide up to
\  - slide down to       ~  - vibrato
h  - hammer on           b  - Bend
p  - pull off            Suffixes for bend
t  - tap                 f  - full bend    h - half bend
ph - pinched harmonic    q  - quarter bend t - tap bend
*  - see comment         ^  - Hold bend    r release bend
x  - Stuccatto           ~  - vibrato bend
,  - slight palm mute    () - ghost note, sustained note
"  - tremolo note        <> - Trill

Tuning:EADGBE

 Riff:1 (play 3 times)
|-------------------------------------------------------------------|
|-------------------------------------------------------------------|
|-------------------------------------------------------------------|
|--2----1------2----1------2----1------2----1/5----4----------------|
|--3----3------3----3------3----3------3----3/7----6----------------|
|-------------------------------------------------------------------|

 Riff:2 (play 2 times)
|-------------------------------------------------------------------|
|-------------------------------------------------------------------|
|--------0---------------0---------------0--------------------------|
|--2---1---1-------2---1---1-------2---1---1-------2---1/5---4------|
|--3---3-----3-----3---3-----3-----3---3-----3-----3---3/7---6------|
|-------------------------------------------------------------------|

 Riff:3 (play with very light vibrato on every note except E,4 times)
|-------------------------------------------------------------------|
|-------------------------------------------------------------------|
|-----------------------------------------------3-------------------|
|-------5------4------3------2--------------------2-----------------|
|-------6------5------4------3------1h2p1h2p1h2-----1~--------------|
|--0-0----0-0----0-0----0-0----0-0----------------------------------|
   . .    . .    . .    . .    . .
 Riff:4  (play 9 times)
|-------------------------------------------------------------------|
|-------------------------------------------------------------------|
|-------------------------------------------------------------------|
|---------------------------3----6----------------------------------|
|---------------------------1----4----6----3------------------------|
|--0-0-0-0-0-0-0-0-0-0-0-0------------4----1------------------------|
   . . . . . . . . . . . .
 Riff:5  (play 8 times)
|-------------------------------------------------------------------|
|-------------------------------------------------------------------|
|-------------------------------------------------------------------|
|-------------------------------------------------------------------|
|--3----55----3----66----3----55----3----66-------------------------|
|--1----33----1----44----1----33----1----44-------------------------|

 Riff:6 (Kickass part, play 8 times)
|-------------------------------------------------------------------|
|-------------------------------------------------------------------|
|-------------------------------------------------------------------|
|------------------------------------------------3--6---------------|
|--2---2-2-2--2---2---2-2-2--2---2---2-2-2--2----1--4--6--3---------|
|--0---0-0-0--0---0---0-0-0--0---0---0-0-0--0----------4--1---------|

 Riff:7  (play 2 times crossed with riff 8)
|-------------------------------------------------------------------|
|-------------------------------------------------------------------|
|-----------------10--11--------------------------------------------|
|--10--9--10--9---10--11--10--9--9-9-------8------7-----------------|
|--10--9--10--9----8---9--10--9--9-9-----7---7------6---------------|
|---8--7---8--7------------8--7--7-7---6-------6------5~------------|

 Riff:8  (play 2 times crossed with riff 7)
|-------------------------------------------------------------------|
|-------------------------------------------------------------------|
|-----------------10--11--------------------------------------------|
|--10--9--10--9---10--11--10--9--9-9---8------7------6--------------|
|--10--9--10--9----8---9--10--9--9-9-----7------6------5~-----------|
|---8--7---8--7------------8--7--7-7-------6------5-----------------|

 Riff:9 (tempo decreases with each repetition of the riff, 4 times)
|------------------------|
|------------------------|
|------------------------|
|--2--1------------------|
|--3--2--4--3--2---------|
|--------4--3--2---------|

 END.

  Visit MetalTabs.com for more metal tablature

bottom separator

Contact Us | Privacy Policy | Disclaimer | Legal Notice
Copyright © 2001-2014 MetalTabs.com. All Rights Reserved.