top separator

Home

Forum

What's New

Submit a Tab

FAQ

Links

Contact Us

Link to Us

MetalTabs.com logo

Bands

0-9

A

B

C

D

E

F

G

H

I

J

K

L

M

N

O

P

Q

R

S

T

U

V

W

X

Y

Z

Search

What

Where
 

Mithotyn - "The well of mimir" Guitar Tab

Plain Text Version
More Mithotyn Tabs

Hits: 2995
Rated: 4.00 out of 5 (1 vote)
Updated: 2006-10-31 06:58:13

 

By:

Daniil

sendpm.gif

email.gif

Important note
This tab is available online because we obtained explicit permission from Mithotyn or their label.


#----------------------------------PLEASE NOTE---------------------------------#
#This file is the author's own work and represents their interpretation of the #
#song. You may only use this file for private study, scholarship, or research. #
#Unless specified otherwise, this is NOT an official tab from the band members.#
#------------------------------------------------------------------------------#

  Visit MetalTabs.com for more metal tablature
  
THIS IS UPDATE OF MY PREVIOUS TAB
=================================

MITHOTYN-The Well Of Mimir
Gathered Around The Oaken Table-1999
Copyright Invasion Records
Transcribed by Daniil Laletin
e-mail: dlaletin@mail.ru
version 2.0 June 2006

All corrections are welcome.

 " - tremolo
 / - slide down
 \ - slide up
 . - palm mute
 ~ - long sound
 x - rest
 p - pull off
 h - hammer on
 tr - trill
 () - ghost note, sustained note
 * - artificial harmonics
 b - bend

 Tuning from low to high: D G C F A D

================================

 Intro
|---------------------------------|
|---------------------------------|
|---------------------------------|
|---------------------------------|gtr 1
|-2-2-2-2-2-2-2-2-2-2-2-2-2-2-2-2-|
|-0-0-0-0-0-0-0-0-0-0-0-0-0-0-0-0-|
|
|---------------------------------|
|---------------------------------|
|---------------------------------|
|---------------------------------|gtr 2
|-2222222222222222222222222222222-|
|-0000000000000000000000000000000-|
  ...............................

|----------------------------------------------------------------------|
|----------------------------------------------------------------------|
|----------------------------------------------------------------------|
|----------------------------------------------------------------------|gtr 1
|-2----2----2----2----2----2----2----2----2----2----2----2----2----2---|
|-0----0----0----0----0----0----0----0----0----0----0----0----0----0---|
|
|----------------------------------------------------------------------|
|----------------------------------------------------------------------|
|----4444-4-------------4444-4-2-0-2-44\----4444-4---------------------|
|-\2--------0-2-4-2\-/2------------.-----/2--------0-2-4-2--4-5-7--5-4-|gtr 2
|----------------------------------------------------------------------|
|----------------------------------------------------------------------|



 Riff 1
|----------------------------------------------------------------------|
|----------------------------------------------------------------------|
|-----------------------------------------------------------2-4-5--4-2-|
|------------7-4------------------------------------7-4-/5-------------|gtr 1
|--2----2----5-2-2----2----2-----7x--9x---2----2----5-2----------------|
|--0-00-0-00-----0----0-00-0-00--5x--7x---0-00-0-00--------------------|
|
|----------------------------------------------------------------------|
|----------------------------------------------------------------------|
|----4444-4-------------4444-4-2-0-2-44\----4444-4---------------------|
|-\2--------0-2-4-2\-/2------------.-----/2--------0-2-4-2--4-5-7--5-4-|gtr 2
|----------------------------------------------------------------------|
|----------------------------------------------------------------------|



 Riff 2
|-----------------------------------------|
|---------------------------------------*-|
|-------------------------------4-5-4-2-4-|
|-----------------------------------------|gtr 1
|-2-/9-7\5-7\5-2-2-----5----7-------------|
|-0-/7-5\3-5\3-0-0--00-3-00-5-0-----------|
|              .
|-----------------------------------------|
|-----------------------------------------|
|---------------------------------------*-|
|-------------------------------5-7-5-4-5-|gtr 2
|-2-/9-7\5-7\5-2-2-----5----7-------------|
|-0-/7-5\3-5\3-0-0--00-3-00-5-0-----------|
               .
|-------------------------------------------------------------|
|-------------------------------------------------------------|
|-------------------0-2-4~--2-4-5~--4-5-7--5-7-9--7-9-12-11-9-|
|-------------------------------------------------------------|gtr 1
|-2-/9-7\5-7\5-2-2--------------------------------------------|
|-0-/7-5\3-5\3-0-0--------------------------------------------|
|              .
|-------------------------------------------------------------|
|-------------------------------------------------------------|
|-------------------------------------------------------------|
|-----------------------------------------------------------9-|gtr 2
|-2-/9-7\5-7\5-2-2------5-------7-------9-----10------12--9-7-|
|-0-/7-5\3-5\3-0-0--0-0-3---3-3-5---5-5-7--77--8--8-8-10--7---|
               .


 Riff 3
|-----------------------------------------------------------------|
|-----------------------------------------------------------------|
|-----------------------------------------------------------------|
|-9-9-9--12-11-9-7-9-9-9--12-11-9-7-5-5-5--5-4-2---2-2-2----------|gtr 1
|-7-7-7--10--9-7-5-7-7-7--10--9-7-5-3-3-3--3-2-0-5-2-2-2--2-5-7-9-|
|-7-7-7------------7-7-7------------3-3-3--------3-0-0-0--0-3-5-7-|
|
|-----------------------------------------------------------------|
|-----------------------------------------------------------------|
|-----------------------------------------------------------------|
|-9-9-9--12-11-9-7-9-9-9--12-11-9-7-5-5-5--5-4-2---2-2-2----------|gtr 2
|-7-7-7--10--9-7-5-7-7-7--10--9-7-5-3-3-3--3-2-0-5-2-2-2--2-5-7-9-|
|-7-7-7------------7-7-7------------3-3-3--------3-0-0-0--0-3-5-7-|



 Riff 4
|----------------------------------------------------------------------|
|----------------------------------------------------------------------|
|-----------------------------------------------------------2-4-5--4-2-|
|-------------------------------------------------------/5-------------|gtr 1
|--2"--------5"2"2"--------------7x--9x---2"--------5"2"---------------|
|--0"------------0"--------------5x--7x---0"---------------------------|
|
|----------------------------------------------------------------------|
|----------------------------------------------------------------------|
|----4"-----------------4"-----2-0-2-44\----4"-------------------------|
|-\2--------0-2-4-2\-/2------------.-----/2--------0-2-4-2--4-5-7--5-4-|gtr 2
|----------------------------------------------------------------------|
|----------------------------------------------------------------------|



 Riff 5                                               x 2
|--------------------------------------------------------|
|--------------------------------------------------------|
|--------------------------------------------------------|
|------------------------7-7----------------5p4---4-4tr5-|gtr 1
|---------5-5------------5-5-----------5-5------6--------|
|-0-0-0-0-3-3----0-0-0-0-------0-0-0-0-3-3---------------|
|
|--------------------------------------------------------|
|--------------------------------------------------------|
|--------------------------------------------------------|
|-2---2-4-5-4---2h4h5h7p5--4---2---2-4-5-4--2p1---1-1tr2-|gtr 2
|---2----------------------------2--------------2--------|
|--------------------------------------------------------|
                                        x 1
|------------------------------------------|
|------------------------------------------|
|------------------------------------------|
|-------------------7-------5-----7-----8--|gtr 1
|-5-----4-----------5---5---3-----5-----6--|
|-3-----2-----0-0-0-----3------------------|
|             . . .
|------------------------------------------|
|------------------------------------------|
|-4-2-0-4-2-0-------2-4-2-0-5-4-2-7-5-4-8\-|
|-------------2-4-5------------------------|gtr 2
|------------------------------------------|
|------------------------------------------|



 Riff 6
|----------------------------------------------------------------------|
|-----------------------------------------------------------3-5-6--5-3-|
|------------7-4------------------------------------7-4-/5-------------|
|--2----2----5-2-2----2----2-----7x--9x---2----2----5-2----------------|gtr 1
|--0-00-0-00-----0----0-00-0-00--5x--7x---0-00-0-00--------------------|
|----------------------------------------------------------------------|
|
|----------------------------------------------------------------------|
|----5555-5-------------5555-5-3-1-3-55\----5555-5---------------------|
|-/2--------0-2-4-2\-/2------------------/2--------0-2-4-2--4-5-7--5-4-|
|----------------------------------------------------------------------|gtr 2
|----------------------------------------------------------------------|
|----------------------------------------------------------------------|

|----------------------------------------------------------------------|
|-----------------------------------------------------------5-7-8--7-5-|
|------------9-6-----------------4x--6x-------------9-6-/7-------------|
|--4----4----7-4-4----4----4-----2x--4x---4----4----7-4----------------|gtr 1
|--2-22-2-22-----2----2-22-2-22-----------2-22-2-22--------------------|
|----------------------------------------------------------------------|
|
|----------------------------------------------------------------------|
|----------------------------------------------------------------------|
|----------------------------------------------------------------------|
|----4444-4-------------4444-4-2-0-2-44\----4444-4---------------------|gtr 2
|-/2--------0-2-4-2\-/2------------------/2--------0-2-4-2--4-5-7--5-4-|
|----------------------------------------------------------------------|



 Outro
|--------------------------------------------------------------------------|
|--------------------------------------------------------------------------|
|--------------------------------------------------------------------------|
|-------7-4----------------------7----\4----222222222222222...-------------|
|-2--2--5-2-2--2--2--7--9--2--2--5----\2----222222222222222...-------------|
|-0--0------0--0--0--5--7--0--0--5----\2----000000000000000...etc-fade out-|
|gtr 1
|--------------------------------------------------------------------------|
|--------------------------------------------------------------------------|
|--------------------------------------------------------------------------|
|-------7-4----------------------7----\4----222222222222222...-------------|
|-2--2--5-2-2--2--2--7--9--2--2--5----\2----222222222222222...-------------|
|-0--0------0--0--0--5--7--0--0--5----\2----000000000000000...etc-fade out-|
 gtr 2

  Visit MetalTabs.com for more metal tablature

bottom separator

Contact Us | Privacy Policy | Disclaimer | Legal Notice
Copyright © 2001-2014 MetalTabs.com. All Rights Reserved.