top separator

Home

Forum

What's New

Submit a Tab

FAQ

Links

Contact Us

Link to Us

MetalTabs.com logo

Bands

0-9

A

B

C

D

E

F

G

H

I

J

K

L

M

N

O

P

Q

R

S

T

U

V

W

X

Y

Z

Search

What

Where
 

Forgotten Woods - "Winter" Guitar Tab

Plain Text Version
More Forgotten Woods Tabs

Hits: 2788
Updated: 2004-09-17 15:31:36

 

By:

sendpm.gif

email.gif

Important note
This tab is available online because we obtained explicit permission from Forgotten Woods or their label.


#----------------------------------PLEASE NOTE---------------------------------#
#This file is the author's own work and represents their interpretation of the #
#song. You may only use this file for private study, scholarship, or research. #
#Unless specified otherwise, this is NOT an official tab from the band members.#
#------------------------------------------------------------------------------#

  Visit MetalTabs.com for more metal tablature
  
Band: Forgotten Woods
Album: As the wolves gather
Song: Winter

Version 1.0 - 17/09/2004

Transcribed By: Alex ( Bebersh )
Email: xhckidx@hotmail.com


RIFF A 2X

E#-----------------------------------------------------#
B#-----------------------------------------------------#
G#--------0------------0------------0------------0-----#
D#----4-----4------4-----4------2-----2------2-----2---#
A#--2---2-----2--2---2-----2--0---0-----0--3---3-----3-#
E#-----------------------------------------------------#

RIFF B 2X

E#-----------------------------------------------------#
B#-----------------------------------------------------#
G#--------0------------0------------0------------0-----#
D#----4-----4------4------------2-----2------2---------#
A#--2---2-----2--2---2---3-2--0---0-----0--0---0---2-0-#
E#-----------------------------------------------------#

RIFF B ( SUITE )

E#-----------------------------------------------------#
B#-----------------------------------------------------#
G#--------0------------0-------------------------------#
D#-----------------------------------------------------#
A#----5-----5------5-----5----4--5--7------------------#
E#--3---3-----3--3---3-----3--2--3--5------------------#

END ON

E#-------#
B#-------#
G#-------#
D#-------#
A#---9---#
E#---7---#

  Visit MetalTabs.com for more metal tablature

bottom separator

Contact Us | Privacy Policy | Disclaimer | Legal Notice
Copyright © 2001-2014 MetalTabs.com. All Rights Reserved.