top separator

Home

Forum

What's New

Submit a Tab

FAQ

Links

Contact Us

Link to Us

MuSpy.com

MetalTabs.com logo

Bands

0-9

A

B

C

D

E

F

G

H

I

J

K

L

M

N

O

P

Q

R

S

T

U

V

W

X

Y

Z

Search

What

Where
 

Gehenna - "Eater Of The Dead" Guitar Tab

Plain Text Version
More Gehenna Tabs

Hits: 2675
Updated: 2005-09-14 20:07:55

 

By:

Daniil

sendpm.gif

email.gif

Important note
This tab is available online because we obtained explicit permission from Gehenna or their label.


#----------------------------------PLEASE NOTE---------------------------------#
#This file is the author's own work and represents their interpretation of the #
#song. You may only use this file for private study, scholarship, or research. #
#Unless specified otherwise, this is NOT an official tab from the band members.#
#------------------------------------------------------------------------------#

  Visit MetalTabs.com for more metal tablature
  
GEHENNA-Eater Of The Dead
Admiron Black-1998
Copyright Moonfog Records
Transcribed by Daniil Laletin
Checked by Jordan Denison
e-mail: dlaletin@mail.ru
        adimironblack@hotmail.com
version 2.0 May 2005

All corrections are welcome.

  " - tremolo
 / - slide down
 \ - slide up
 . - palm mute
 ~ - long sound
 x - rest
 p - pull off
 h - hammer on
 tr - trill
 () - ghost note, sustained note
 <> - let ring

 Tuning from low to high: E A D G B E
=====================================
Corrected: Riff 2, Riff 3, Riff 6,
           Clean Outro
======================

 Riff 1               Riff 2
|---------------|     |-------------------------|
|---------------|     |-------------------------|
|---------------|     |---------------0-----0---|
|---------------|     |-------3-2-3-4-4-4-5-5-5-|
|-----2"--1"----|     |-------3-2-3-4---4-5---5-|
|-0"------------|     |-0-000-------------------|



 Riff 3
|-------------------------------------|
|-------------------------------------|
|-------------------------------------|
|-------------------------------------|
|------2--------1--------2--------2-2-|
|-00-0-0---00-0-0---00-0-3---00-0-2-2-|
  .. .     .. .     .. .     .. .

|--------------------------------------|
|--------------------------------------|
|--------------------------------------|
|--------------------------------------|
|------2--------1-2--------2-------2-2-|
|-00-0-0---00-0-0-1---00-0-3--00-0-2-2-|
  .. .     .. .       .. .    .. .


 Riff 4
|---------------------------------|
|---------------------------------|
|-------4-3-4---------3-------3---|
|---2-5-------4-5---2---2---2---2-|
|-------------------------1-------|
|-0---------------0---------------|
|
|---------------------------------|
|---------------------------------|
|-------------------------3-------|
|---------------------------------|
|-2---------------2-------1-------|
|-0---------------0---------------|



 Riff 5
|---------------------------------|    |-------------------|Something like
|---------------------------------|    |-------------------|this is played
|---------------------------------|    |-------------------|under riff 5
|---------------------------------|    |-------------------|
|---------------------------------|    |-2"---5"---8"--7"--|
|-00-0000-00-0000-00-0000-...-etc-|    |-0"---3"---6"--5"--|



 Riff 6
|-------------------------------------------------------------|
|-------------------------------------------------------------|
|-------------------------------------------------------------|
|----------------5\4---4\3--------------------5\4-------------|
|-3p2---3p2------3\2---2\1-----3p2---3p2------3\2-------------|
|-1p0-0-1p0-0000-----0-----0-1-1p0-0-1p0-0000-----0-3p2p0-2-3-|
            ....           . .           ....     .       . .



 Clean outro
|-----3---2-----------5---3-----------3---2-----------0-----------|
|-5-------------5-5-------------5-5-------------5---1---1-4-5-4-5-|
|---4---4---4-5-----4---4---4-5-----4---4---4-5---2---------------|
|-----------------------------------------------------------------|
|-----------------------------------------------------------------|
|-----------------------------------------------------------------|
|
|---------3---3-----------3---3-----------3---3-------------------|
|-5---5-----------5---5-----------5---5-------------5---5---5---5-|
|---4---4---4---4---4---4---4---4---4---4---4---4-5---5---5---5---|
|-----------------------------------------------------------------|
|-----------------------------------------------------------------|
|-----------------------------------------------------------------|

|-----3---2-----------5---3-----------3---2-----------0-----------|
|-5-------------5-5-------------5-5-------------5---1---1-4-5-4-5-|
|---4---4---4-5-----4---4---4-5-----4---4---4-5---2---------------|
|-----------------------------------------------------------------|
|-----------------------------------------------------------------|
|-----------------------------------------------------------------|
|
|---------3---3-----------3---3-----------3---3---2---2-----------|
|-5---5-----------5---5-----------5---5---------------------5---5-|
|---4---4---4---4---4---4---4---4---4---4---4---4---4---4-5---5---|
|-----------------------------------------------------------------|
|-----------------------------------------------------------------|
|-----------------------------------------------------------------|

  Visit MetalTabs.com for more metal tablature

bottom separator

Contact Us | Privacy Policy | Disclaimer | Legal Notice
Copyright © 2001-2014 MetalTabs.com. All Rights Reserved.