top separator

Home

Forum

What's New

Submit a Tab

FAQ

Links

Contact Us

Link to Us

MetalTabs.com logo

Bands

0-9

A

B

C

D

E

F

G

H

I

J

K

L

M

N

O

P

Q

R

S

T

U

V

W

X

Y

Z

Search

What

Where
 

Gehenna - "Seeds Of Man's Destruction" Guitar Tab

Plain Text Version
More Gehenna Tabs

Hits: 2924
Rated: 4.00 out of 5 (1 vote)
Updated: 2005-09-14 20:07:44

 

By:

Daniil

sendpm.gif

email.gif

Important note
This tab is available online because we obtained explicit permission from Gehenna or their label.


#----------------------------------PLEASE NOTE---------------------------------#
#This file is the author's own work and represents their interpretation of the #
#song. You may only use this file for private study, scholarship, or research. #
#Unless specified otherwise, this is NOT an official tab from the band members.#
#------------------------------------------------------------------------------#

  Visit MetalTabs.com for more metal tablature
  
GEHENNA-Seed Of Man's Destruction
Admiron Black-1998
Copyright Moonfog Records
Transcribed by Daniil Laletin
Checked by Jordan Denison
e-mail: dlaletin@mail.ru
        adimironblack@hotmail.com
version 1.1 May 2005

All corrections are welcome.

  " - tremolo
 / - slide down
 \ - slide up
 . - palm mute
 ~ - long sound
 x - rest
 p - pull off
 h - hammer on
 tr - trill
 () - ghost note, sustained note
 <> - let ring

Tuning from low to high: E A D G B E
====================================

 Riff 1 - slow tremolo
|--------------------------------------------------|
|--------------------------------------------------|
|--------------------------------------------------|
|-------000000------000000444444444444-------------|
|-444444444444444444444444222222222222333333333333-|
|-222222------222222------------------111111111111-|

|--------------------------------------------------|
|--------------------------------------------------|
|--------------------------------------------------|
|-------000000------000000444444444444-------------|
|-444444444444444444444444222222222222555555555555-|
|-222222------222222------------------333333333333-|



 Riff 2
|-----------------------------------------------------------------|
|-----------------------------------------------------------------|
|-----------------------------------------------------------------|
|-----------------------------------------------------------------|
|-----------------------------------------------------------------|
|-5-2-222-5-2-222-5-2-222-5-2-222-4-1-111-4-1-111-4-1-111-4-1-111-|
  . .     . .     . .     . .     .  .    . .     . .     . .



 Riff 3
|---------------------------------------------------|
|---------------------------------------------------|
|-------------------------------------------------3-|
|-2-------2-1---------------------2-------1-2-----1-|
|-2-------2-1-----4-4-4-4-3-3-3-3-2-------1-2-----1-|
|-0-0-0-0-----0-0-2-2-2-2-1-1-1-1-0-0-0-0-----0-0---|



 Riff 4
|---------------------------------------------------|
|---------------------------------------------------|
|---------------------------------------------------|
|---------------------------------------------------|
|----3-3-2~----2---1----------4-4-3~----2---1-------|
|-1---------4----4---2-4-2-1---------4----4---2-4-2-|

|----------------------------------------------------|
|----------------------------------------------------|
|----------------------------------------------------|
|----------------------------------------------------|
|----3-3-2~----2---1---------4-4-3~-33---------------|
|-1---------4----4---2-4-2-1--------..-4-2-4-1-4-2-4-|
                                       . . . . . . .


 Melodic riff played under riff 3
|----------------------------------|
|-----8---------------8------------|
|---9---9-----------9---9-8-9-11-9-|
|----------------------------------|
|-7-------9-9-8-8-7----------------|
|----------------------------------|



 Riff 5
|-------------------------------------------------------------------------|
|-------------------------------------------------------------------------|
|-------------------------------------------------------------------------|
|-------------------------------------------------------------------------|
|-----44-------44-------44-------44-------33-------33-------33-------33---|
|-5522--22-5522--22-5522--22-5522--22-4411--11-4411--11-4411--11-4411--11-|



 End with this chord
|---|
|---|
|---|
|---|
|-4-|
|-2-|

  Visit MetalTabs.com for more metal tablature

bottom separator

Contact Us | Privacy Policy | Disclaimer | Legal Notice
Copyright © 2001-2014 MetalTabs.com. All Rights Reserved.