top separator

Home

Forum

What's New

Submit a Tab

FAQ

Links

Contact Us

Link to Us

MetalTabs.com logo

Bands

0-9

A

B

C

D

E

F

G

H

I

J

K

L

M

N

O

P

Q

R

S

T

U

V

W

X

Y

Z

Search

What

Where
 

Gehenna - "Slowly Being Poisoned" Guitar Tab

Plain Text Version
More Gehenna Tabs

Hits: 2605
Updated: 2005-09-14 20:07:32

 

By:

Daniil

sendpm.gif

email.gif

Important note
This tab is available online because we obtained explicit permission from Gehenna or their label.


#----------------------------------PLEASE NOTE---------------------------------#
#This file is the author's own work and represents their interpretation of the #
#song. You may only use this file for private study, scholarship, or research. #
#Unless specified otherwise, this is NOT an official tab from the band members.#
#------------------------------------------------------------------------------#

  Visit MetalTabs.com for more metal tablature
  
GEHENNA-Slowly Being Poisoned
Admiron Black-1998
Copyright Moonfog Records
Transcribed by Daniil Laletin
Checked by Jordan Denison
e-mail: dlaletin@mail.ru
        adimironblack@hotmail.com
version 2.0 May 2005

All corrections are welcome.

  " - tremolo
 / - slide down
 \ - slide up
 . - palm mute
 ~ - long sound
 x - rest
 p - pull off
 h - hammer on
 tr - trill
 () - ghost note, sustained note
 <> - let ring

Tuning from low to high: E A D G B E
====================================
Corrected: Riff 2, Riff 4, Riff 5
=================================

 Riff 1
|--------------------------------------------------------|
|--------------------------------------------------------|
|--------------------------------------------------------|
|--------------------------------------------------------|gtr 1
|--------------------------------------------------------|
|-000-000-000-000-....-etc-------------------------------|
|
|--------------------------------------------------------|
|--------------------------------------------------------|
|-999999----------333333----------666666----------555555-|
|-999999----------333333----------666666----------555555-|gtr 2
|-777777----------111111----------444444----------333333-|
|--------------------------------------------------------|



 Riff 2
|-------------------------------------------------|
|-------------------------------------------------|
|-------------------------------------------------|
|-2-----2-----2-----2-----------------------------|
|-------------------------1-----1-----1-----1-----|
|---030---030---030---030---020---020---020---020-|
    ...   ...   ...   ...   ...   ...   ...   ...



 Riff 3
|----------------------------------------------|
|----------------------------------------------|
|-------0-------------------0------------------|
|-------2-----3"------------2-----3"-----------|
|-2-----------1"------2-----------1"------4--4-|
|-0-------------------0-----------------002002-|



 Riff 4
|--------------------------------------------------------|
|--------------------------------------------------------|
|--------------------------------------------------------|
|-----------------6-/8-8\7\5-----------------5-----------|
|-4--7-5--8-7-5-4-4-/6-6\5\3-4--7-5--8-7-5-4-3-6-6/7-7/9-|
|-2--5-3--6-5-3-2------------2--5-3--6-5-3-2---4-4/5-5/7-|

|--------------------------------------------------------|
|--------------------------------------------------------|
|--------------------------------------------------------|
|-----------------6-/8-8\7\5-----------------5-----------|
|-4--7-5--8-7-5-4-4-/6-6\5\3-4--7-5--8-7-5-4-3-6-667-779-|
|-2--5-3--6-5-3-2------------2--5-3--6-5-3-2---4-445-557-|
                                                 ..  ..


 Riff 5                 Fill 1         Fill 2
|-----------------|    |---------|    |---------|
|-----------------|    |---------|    |---------|
|-----------------|    |---------|    |---------|
|-4-------3-------|    |---------|    |---------|
|-2-------1-------|    |-4-4-4-4-|    |---4---4-|
|---0-3-0---0-2-0-|    |-2-2-2-2-|    |-002-002-|
    . . .   . . .        . . . .


 Fill 1 & Fill 2 you must play only once in the song,
 just listen to the song.

  Visit MetalTabs.com for more metal tablature

bottom separator

Contact Us | Privacy Policy | Disclaimer | Legal Notice
Copyright © 2001-2014 MetalTabs.com. All Rights Reserved.