top separator

Home

Forum

What's New

Submit a Tab

FAQ

Links

Contact Us

Link to Us

MuSpy.com

MetalTabs.com logo

Bands

0-9

A

B

C

D

E

F

G

H

I

J

K

L

M

N

O

P

Q

R

S

T

U

V

W

X

Y

Z

Search

What

Where
 

Gehenna - "The Killing Kind" Guitar Tab

Plain Text Version
More Gehenna Tabs

Hits: 3127
Rated: 4.00 out of 5 (1 vote)
Updated: 2005-09-14 20:07:21

 

By:

Daniil

sendpm.gif

email.gif

Important note
This tab is available online because we obtained explicit permission from Gehenna or their label.


#----------------------------------PLEASE NOTE---------------------------------#
#This file is the author's own work and represents their interpretation of the #
#song. You may only use this file for private study, scholarship, or research. #
#Unless specified otherwise, this is NOT an official tab from the band members.#
#------------------------------------------------------------------------------#

  Visit MetalTabs.com for more metal tablature
  
GEHENNA-The Killing Kind
Admiron Black-1998
Copyright Moonfog Records
Transcribed by Daniil Laletin
Checked by Jordan Denison
e-mail: dlaletin@mail.ru
        adimironblack@hotmail.com
version 2.0 June 2005

All corrections are welcome.

  " - tremolo
 / - slide down
 \ - slide up
 . - palm mute
 ~ - long sound
 x - rest
 p - pull off
 h - hammer on
 tr - trill
 () - ghost note, sustained note
 <> - let ring

Tuning from low to high: E A D G B E
====================================
Corrected: Riff 2, Riff 4
=========================

 Riff 1
|---------------------------------------------|
|---------------------------------------------|

|---------------------------------------------|
|---------------------------------------------|
|------2"-1"-3"----1"-7"-6h7p6-3"-6"-4h6p4-1"-|
|-0"------------------------------------------|


 Riff 2
|---------------------------------------------------|
|---------------------------------------------------|
|---------------------------------------------------|
|---------------------------------------------------|
|-2-----2-----2---1-----1-----1---2-----2-----2---1-|
|---000---000---0---000---000---0---000---000---0---|

 Endings of riff 2
               1                    2
|---------------|    |---------------|
|---------------|    |---------------|
|---------------|    |---------------|
|---------------|    |---------------|
|-------2-------|    |-------2-------|
|-0-2-3---0-3-2-|    |-0-2-3---0-2-3-|



 Riff 3a
|----------------------------------------------------------|
|----------------------------------------------------------|
|----------------------------------------------------------|
|----------------------------------------------------------|
|-3\2------2-----2\1-1111-1-----1/2------2----2\1-1111-1-1-|
|-0-0-0000-00000-0-0-0000-00000-0-0-0000-0000-0-0-0000-1-1-|
      ....           ....           ....          ....


 Riff 3b
|--------------------------------------------------------------|
|--------------------------------------------------------------|
|--------------------------------------------------------------|
|--------------------------------------------------------------|
|-3\2------2----2\1--------------1/2--------------2\1------1-1-|
|-0-0-0000-0000-0-0-0-0-00000000-0-0-0-0-00000000-0-0-0000-1-1-|
      ....          . .              . .              ....



 Riff 4 - still with mistakes, but now it's sounds much better
|-------------------------------------------------------------|
|-------------------------------------------------------------|
|-------------------------------------------------------------|
|-------------------------------------------------------------|
|---4-4---4---4-3---0-0-0-0---4---4-4---4---4-3---0-0---3---2-|
|-2-----2---2-----2-4h5-4h5-4---2-----2---2-----2-4h5-0---0---|

|-----------------------------------------------------------------|
|-----------------------------------------------------------------|
|-----------------------------------------------------------------|
|-----------------------------------------------------------------|
|---4-4---4---4-3---0-0-0-0---4---4-4---4---4-3-4-3h4p3p0-1p0-----|
|-2-----2---2-----2-4h5-4h5-4---2-----2---2-------------------3h5-|



 Riff 5
|-------------------------------------|
|-------------------------------------|
|-------------------------------------|
|-------------------------------------|
|-2"---5"2"-8"------2"---5"2"-4"------|
|-0"---3"0"-6"------0"---3"0"-2"------|

  Visit MetalTabs.com for more metal tablature

bottom separator

Contact Us | Privacy Policy | Disclaimer | Legal Notice
Copyright © 2001-2014 MetalTabs.com. All Rights Reserved.