top separator

Home

Forum

What's New

Submit a Tab

FAQ

Links

Contact Us

Link to Us

MetalTabs.com logo

Bands

0-9

A

B

C

D

E

F

G

H

I

J

K

L

M

N

O

P

Q

R

S

T

U

V

W

X

Y

Z

Search

What

Where
 

Vintersorg - "Rundans" Guitar Tab

Plain Text Version
More Vintersorg Tabs

Hits: 3857
Rated: 5.00 out of 5 (3 votes)
Updated: 2004-09-12 14:50:56

 

By:

pred

sendpm.gif

email.gif

Important note
This tab is available online because we obtained explicit permission from Vintersorg or their label.


#----------------------------------PLEASE NOTE---------------------------------#
#This file is the author's own work and represents their interpretation of the #
#song. You may only use this file for private study, scholarship, or research. #
#Unless specified otherwise, this is NOT an official tab from the band members.#
#------------------------------------------------------------------------------#

  Visit MetalTabs.com for more metal tablature
  
Song: Vintersorg - Rundans.
Album: Till Fjälls / 1998 Napalm Records.
Tabbed by: pred, pred@hogl.dk, 9/12 2004.

Standard tuning - 3/4

Intro (acoustic);
B|---------------------------------3---5---------|
G|-----0-----------0-----0-----5---4---5---------|
D|---7-----7-----4-----5-----2-------------------|
A|-5-----5-----2-----3-----0---------------------|

   1   2   3   1   2   3   1   2   3   1   2   3

Verse (distorted);
D|-7-----------3-------2---7-----------3-------5-|
A|-7-----------3-------2---7-----------3-------5-|
E|-5-----------1-------0---5-----------1-------3-|

D|-7-----------3-------5---7----10-9---7---------|
A|-7-----------3-------5---7----10-9---7---------|
E|-5-----------1-------3---5-----8-7---5---------|

   1   2   3   1   2   3   1   2   3   1   2   3

Outro;
B|---------------------------------3-----5---------|
G|-----0-----------0-----0-----5---4----5----------|
D|---7-----7-----4-----5-----2---------2-----------|
A|-5-----5-----2-----3-----0-----------------------|

   1   2   3   1   2   3   1   2   3   1     2   3

Intro*4
Verse*4
Intro*1
Outro*1

  Visit MetalTabs.com for more metal tablature

bottom separator

Contact Us | Privacy Policy | Disclaimer | Legal Notice
Copyright © 2001-2014 MetalTabs.com. All Rights Reserved.