top separator

Home

Forum

What's New

Submit a Tab

FAQ

Links

Contact Us

Link to Us

MetalTabs.com logo

Bands

0-9

A

B

C

D

E

F

G

H

I

J

K

L

M

N

O

P

Q

R

S

T

U

V

W

X

Y

Z

Search

What

Where
 

Bloodbath - "Buried By The Dead" Guitar Tab

Plain Text Version
More Bloodbath Tabs

Hits: 4348
Rated: 4.50 out of 5 (8 votes)
Updated: 2004-09-11 06:58:28

 

By:

xmoonshieldx

sendpm.gif

email.gif

Important note
This tab is available online because we obtained explicit permission from Bloodbath or their label.


#----------------------------------PLEASE NOTE---------------------------------#
#This file is the author's own work and represents their interpretation of the #
#song. You may only use this file for private study, scholarship, or research. #
#Unless specified otherwise, this is NOT an official tab from the band members.#
#------------------------------------------------------------------------------#

  Visit MetalTabs.com for more metal tablature
  
Band: Bloodbath
Album: Resurrection Through Carnage
Song: Buried By The Dead

Copyright (c)  Century Media 2002

Transcribed By: xmoonshieldx


.  - palm mute           /  - slide up to
\  - slide down to       ~  - vibrato
h  - hammer on           b  - Bend
p  - pull off            Suffixes for bend
t  - tap                 f  - full bend    h - half bend
ph - pinched harmonic    q  - quarter bend t - tap bend
*  - speed pick          ^  - Hold bend    r release bend
x  - Stuccatto           ~  - vibrato bend
,  - slight palm mute    () - ghost note, sustained note
"  - tremolo note        <> - Trill

Tunning B E A D F# B

 3x
|---------------------------|---------------------------|
|---------------------------|---------------------------|
|---------------------------|---------------------------|
|---------------------------|---------------------------|
|--------2----2------1------|--------2----2------1------|
|-3--0-0-0--0-0---3-----2-2-|-3--0-0-0--0-0---3-----2-2-|
     . .    .           . .      . .    .           . .

|------------------------|-----------------||
|------------------------|-----------------||
|------------------------|-----------------||
|------------------------|-----------------||
|--------2----2-----1----|-------3-2---1---||
|-3--0-0-0--0-0--3-----2-|-3-2-1-----3---2-||
     . .    .

|-----||
|-----||
|-----||
|-----||
|-2---||
|-0---||

 2x
|--------------------------||
|--------------------------||
|--------------------------||
|----------------*9-*10-*8-||
|-----*7----*7-*6----------||
|-*0-----*8----------------||

 2x
|-----------------------||
|-----------------------||
|-----------------------||
|---------------*4--*3--||
|-*2---*3---------------||
|---------*3--*2--------||

 4x
|------------------------------||
|------------------------------||
|------------------------------||
|------------------------------||
|-----*7-----*7-*6-----10----8-||
|-*0------8---------7--8--6--6-||

 2x
|-----------------------||
|-----------------------||
|-----------------------||
|---------------*4--*3--||
|-*2---*3---------------||
|---------*3--*2--------||

 2x
|---------------------------|---------------------------|
|---------------------------|---------------------------|
|---------------------------|---------------------------|
|---------------------------|---------------------------|
|--------2----2------1------|--------2----2------1------|
|-3--0-0-0--0-0---3-----2-2-|-3--0-0-0--0-0---3-----2-2-|
     . .    .           . .      . .    .           . .

|------------------------|-----------------||
|------------------------|-----------------||
|------------------------|-----------------||
|------------------------|-----------------||
|--------2----2-----1----|-------3-2---1---||
|-3--0-0-0--0-0--3-----2-|-3-2-1-----3---2-||

 4x
|------------------------------||
|------------------------------||
|------------------------------||
|------------------------------||
|-----*7-----*7-*6-----10----8-||
|-*0------8---------7--8--6--6-||

 6x
|--------------------------------|------------------------||
|--------------------------------|------------------------||
|--------------------------------|------------------------||
|------------------*5------------|-----------------*5--*2-||
|-2-------5-2---*2-----*2-*3--2--|-2---7-6--*3--*2--------||
|-0---0-2-3-0-----------------0--|-0----------------------||
      . .
 4x
|---------------------------|---------------------------|
|---------------------------|---------------------------|
|---------------------------|---------------------------|
|---------------------------|---------------------------|
|--------2----2------1------|--------2----2------1------|
|-3--0-0-0--0-0---3-----2-2-|-3--0-0-0--0-0---3-----2-2-|
     . .    .           . .      . .    .           . .

|------------------------|-----------------||
|------------------------|-----------------||
|------------------------|-----------------||
|------------------------|-----------------||
|--------2----2-----1----|-------3-2---1---||
|-3--0-0-0--0-0--3-----2-|-3-2-1-----3---2-||

3:02
|--------|---------||
|--------|---------||
|--------|---------||
|--------|---------||
|-2--2---|-2-------||
|-0--0---|-0-------||
  .  .

/END

  Visit MetalTabs.com for more metal tablature

bottom separator

Contact Us | Privacy Policy | Disclaimer | Legal Notice
Copyright © 2001-2014 MetalTabs.com. All Rights Reserved.