top separator

Home

Forum

What's New

Submit a Tab

FAQ

Links

Contact Us

Link to Us

MuSpy.com

MetalTabs.com logo

Bands

0-9

A

B

C

D

E

F

G

H

I

J

K

L

M

N

O

P

Q

R

S

T

U

V

W

X

Y

Z

Search

What

Where
 

Cemetary - "By My Own Hand" Guitar Tab

Plain Text Version
More Cemetary Tabs

Hits: 2346
Updated: 2004-09-09 16:02:39

 

By:

sendpm.gif

email.gif

Important note
This tab is available online because we obtained explicit permission from Cemetary or their label.


#----------------------------------PLEASE NOTE---------------------------------#
#This file is the author's own work and represents their interpretation of the #
#song. You may only use this file for private study, scholarship, or research. #
#Unless specified otherwise, this is NOT an official tab from the band members.#
#------------------------------------------------------------------------------#

  Visit MetalTabs.com for more metal tablature
  
Arista - Cemetary
Alb˙m - Godless Beauty
Tema - By own my hands

Transcrito por _Richy Metal
(El infierno desde Pampahasi...Bolivia Death Metal)
electroviolence@bolivia.com
Tono D-G-C-F-A-D

GuitI
|---------------------------------------------|
|---------------------------------------------|
|---------------------4-----------------------|
|-2------4--5------5--4----7--5----5-4/5--2---|
|-2------4--5------5--2----7--5----5-4/5--2---|
|-0------2--3------3-------5--3----3-2/3--0---|


Guit II
|--------------------------------------------------|
|--------------------------------------------------|
|------------------11-9-11-11h12-9-11--9/7-7-6-7---|
|--9-7-9-9h10-7-9----------------------------------|
|--------------------------------------------------|
|--------------------------------------------------|


|------------------------------|
|------------------------------|
|--------4---4----------4--4---|
|-5-4/5--4---4--5-4/5---4--4---|
|-5-4/5--2---2--5-4/5---2--2---|
|-3-2/3---------3-2/3----------|
                                  |
Guit I
|---------------------------------------|
|---------------------------------------|
|-----------------------5-----7-----5---|
|-5-4/5---2-------------5-----7-----5---|
|-5-4/5---2-------------3-----5-----3---|
|-3-2/3---0-----------------------------|

Guit II
|----------------------------------|
|---------7--------------7---------|
|---5-4-5---5-4-5--5-4-5---5-4-5---|
|----------------------------------|
|----------------------------------|
|----------------------------------|


Solo
|-------15------------------------------------------|
|-15h17----17-15h17--12h13-12-10h12-10---9-9-7---7--|
|--------------------------------------9-------9----|
|---------------------------------------------------|
|---------------------------------------------------|
|---------------------------------------------------|
                                       . .   . .

|----------------------------------------------|
|--------------------------8-----8-----8-------|
|-9-7-----------7-7-7-5--7---9-7---9-7---9-----|
|-----9-7h9-7h9--------------------------------|
|----------------------------------------------|
|----------------------------------------------|
  . . .

|------------------------------------------------|
|-8/10-10/12-12h13-12-15-13-12-8/10-10-10/8-8/7--|
|------------------------------------------------|
|------------------------------------------------|
|------------------------------------------------|
|------------------------------------------------|

  Visit MetalTabs.com for more metal tablature

bottom separator

Contact Us | Privacy Policy | Disclaimer | Legal Notice
Copyright © 2001-2014 MetalTabs.com. All Rights Reserved.