top separator

Home

Forum

What's New

Submit a Tab

FAQ

Links

Contact Us

Link to Us

MetalTabs.com logo

Bands

0-9

A

B

C

D

E

F

G

H

I

J

K

L

M

N

O

P

Q

R

S

T

U

V

W

X

Y

Z

Search

What

Where
 

My Dying Bride - "The Blue Lotus" Guitar Tab

Plain Text Version
More My Dying Bride Tabs

Hits: 6120
Rated: 4.33 out of 5 (3 votes)
Updated: 2004-09-09 04:34:37

 

By:

TheDreadfulHoroscope

sendpm.gif

email.gif

Important note
This tab is available online because we obtained explicit permission from My Dying Bride or their label.


#----------------------------------PLEASE NOTE---------------------------------#
#This file is the author's own work and represents their interpretation of the #
#song. You may only use this file for private study, scholarship, or research. #
#Unless specified otherwise, this is NOT an official tab from the band members.#
#------------------------------------------------------------------------------#

  Visit MetalTabs.com for more metal tablature
  
Band:  My Dying Bride
Album: Songs of Darkness, Words or Light
Song:  The Blue Lotus

Copyright (c)  Peaceville, 2004

Transcribed By: Calvin Smith
Email:          the_annoyance2002@yahoo.com


.  - palm mute           /  - slide up to
\  - slide down to       ~  - vibrato
h  - hammer on           b  - Bend
p  - pull off            Suffixes for bend
t  - tap                 f  - full bend    h - half bend
ph - pinched harmonic    q  - quarter bend t - tap bend
*  - see comment         ^  - Hold bend    r release bend
x  - Stuccatto           ~  - vibrato bend
,  - slight palm mute    () - ghost note, sustained note
"  - tremolo note        <> - Trill

Tunning is an entire step down from standard

Main Riff, Guitar 1-

|-----------------------------------------------------------------|
|-----------------------------------------------------------------|
|-----------------------------------------------------------------|
|-----------------------4-3-3-3-3-4-3-3-4-3-3-3-3-----------------|
|-2-2-2-5-4-4-4-4-5-4-4-2-1-1-1-1-2-1-1-2-1-1-1-1-5-4-4-5-4-4-5\--|
|-0-0-0-3-2-2-2-2-3-2-2---------------------------3-2-2-3-2-2-3\--|
  . . . . . . . . . . . . . . . . . . . . . . . . . . . . . .

Guitar 2-


|--------------------------------------------------------------|
|-0--12-11fbr---14-12-11fbr--------12-11fbr----14-12-11fbr-----|
|-------------9-------------15--------------9------------------|
|------------------------------14~-----------------------------|
|--------------------------------------------------------------|
|--------------------------------------------------------------|

Guitar 2, play this after the last time the other riff is played-


|------17fb-------18fb----------------|
|--15--------15-----------------------|
|-------------------------------------|
|-------------------------------------|
|-------------------------------------|
|-------------------------------------|


The main riff is constant for a while, except when playing it dont
palm mute it during this riff-

Guitar 2
|------------------------------|
|------------------------------|
|------------------------------|
|------------------------------|
|-21125444421121111100100------|
|------------------------------|

Riff 2
Guitar 1-
|-----------------|
|-----------------|
|-----------------|
|-----------------|
|-2--2-2-2-2-2----|
|-0--0-0-0-0-0----|
  .  . . . . .
Guitar 2-
|------------------|
|------------------|
|-------4X---------|
|-------3X---------|
|-2-2-2-2X-2-2-----|
|-0-0-0----0-0-----|
  . . .    . .


Speedy Tremelo Riff-
|-----------------|
|-----------------|
|-----------------|
|------6"---------|
|--8"7"-----------|
|-----------------|


This is the lone echo riff-
Guitar 2-
|-----------------------------------|
|-------10\9-----12-11hb------------|
|--7/10-------------------11h12-----|
|-----------------------------------|
|-----------------------------------|
|-----------------------------------|

Guitar 1 (interjects after the echo riff)-

|-------------|
|-------------|
|-------------|
|-------------|
|-2-4-5-4-----|
|-0-2-3-2-----|


Later, Riff 2 is played again with chord changes on the first guitar-


|----------------------------------------------------------------------------|
|----------------------------------------------------------------------------|
|----------------------------------------------------------------------------|
|----------------------------------------------------------------------------|
|-2--2-2-2-2--2-2-2-2-2-2-5--5-5-5-5-5--5-5-5-5-5-5--4--4-4-4-4-4--4-4-4-----|
|-0--0-0-0-0--0-0-0-0-0-0-3--3-3-3-3-3--3-3-3-3-3-3--2--2-2-2-2-2--2-2-2-----|
  .  . . . .  . . . . . . .  . . . . .  . . . . . .  .  . . . . .  . . .
|---------------|
|---------------|
|---------------|
|---------------|
|-2-4-5-4-------|
|-0-2-3-2-------|

END

I didn't do too much at all of an order,
but all the riffs except for the solo in
the last couple of minutes in the song. It shouldn't be to
hard to get the order
down. Email me for questioning/critisism.

  Visit MetalTabs.com for more metal tablature

bottom separator

Contact Us | Privacy Policy | Disclaimer | Legal Notice
Copyright © 2001-2014 MetalTabs.com. All Rights Reserved.