top separator

Home

Forum

FAQ

Contact Us

Link to Us

MetalTabs.com logo

Bands

0-9

A

B

C

D

E

F

G

H

I

J

K

L

M

N

O

P

Q

R

S

T

U

V

W

X

Y

Z

Cemetary - "Where The Fire Forever Burns" Guitar Tab

Plain Text Version
More Cemetary Tabs

Hits: 2237
Updated: 2004-09-08 16:23:11

By:


#----------------------------------PLEASE NOTE---------------------------------#
#This file is the author's own work and represents their interpretation of the #
#song. You may only use this file for private study, scholarship, or research. #
#Unless specified otherwise, this is NOT an official tab from the band members.#
#------------------------------------------------------------------------------#

  Visit MetalTabs.com for more metal tablature
  
Arista - Cemetary
Alb˙m - Godless Beauty
Tema - Where the fire forever burns

Transcrito por _Richy Metal
(El infierno desde Pampahasi...Bolivia Death Metal)

Este es uno de los mejores temas del disco (a mi parecer), es secillo,
es lento y melodioso, algunas partes puede ser que no esten correctas
mandenme sus correcciones y sugerencias a electrorichy@hotmail.com
Gracias ...disfruten...

Tono D-G-C-F-A-D


 Guitarra Acustica

|----0-----0-----0---0-----0-----0---0-----0-------0---0-----0-----0-|
|------0-----0---------0-----0---------0-----0-----------0-----0-----|
|--9-----9-----7---5-----5-----4---2-----4-----4/5---4-----4-----4---|
|--------------------------------------------------------------------|
|--------------------------------------------------------------------|
|--------------------------------------------------------------------|


|---------------------------------------------------------|
|------------------------7h8------------------------------|
|--------9----------9--------------9----------9-----------|
|------9---8/-----9---8h9--------9---8/-----9---8h9-------|Guit I
|----7----------7--------------7----------7---------9h10--|
|--0----------0--------------0----------0-----------------|
   . . . .    . . . .        . . . .    . . . .


|--------------------------------------------------------------|
|--------------------------------------------------------------|
|--------------------------------------------------------------|
|--2----------2------------3-2----------2---------------3-2----|Guit II
|--2----------2------------3-2----------2---------------3-2----|
|--0----------0------------1-0----------0---------------1-0----|


|---------------------------------------------------------------|
|---------------------------------------------------------------|
|---------------------------------------------------------------|
|--2-----------------------3-2---------------------------3-2----|
|--2-----------------------3-2---------------------------3-2----|
|--0-0-0-0-0-0-0-0-0-0-0-0-1-0-0-0-0-0-0-0-0-0-0-0-0-0-0-1-0----|
PM . . . . . . . . . . . .   . . . . . . . . . . . . . .

|------------------------------------------|
|------------------------------------------|
|------------------------------------5/7---|
|--4-----------------4---------------------|
|--2--------2--------2-------2-------3/5---|
|-----------3----------------3-------------|

Guit. Acustica

|------------------------------------------|
|--7---7----9---9----7---7---9---9---------|
|----4---4----4---4----4---4---4-----5-7---|
|------------------------------------------|
|------------------------------------------|
|------------------------------------------|

Guit. Acustica

|----0-----0-----0---0-----0-----0---0-----0-------0---0-----0-----0-|
|------0-----0---------0-----0---------0-----0-----------0-----0-----|
|--9-----9-----7---5-----5-----4---2-----4-----4/5---4-----4-----4---|
|--------------------------------------------------------------------|
|--------------------------------------------------------------------|
|--------------------------------------------------------------------|



|---------------------------------------------------------|
|---------------------------------------------------------|
|---------------------------------------------------------|
|--9----------7---5------------4---2-----4----4/5---4-----|
|--7----------5---3------------2---0-----2----2/3---2-----|
|---------------------------------------------------------|


|---------------------------------------|
|---------------------------------------|
|---------------------------------------|
|-------------2-2-----4-5-4-2-----4-2---|
|--2--2-------3-3-----5-7-5-3-----5-3---|
|--0--0--0-0------0-0---------0-0-------|
         . .      . .         . .

|---------------------------------------|
|---------------------------------------|
|---------------------------------9-7---|
|-------------2-2-----4-5-4-2-----7-5---|
|--2--2-------3-3-----5-7-5-3-----------|
|--0--0--0-0------0-0---------0-0-------|
         . .      . .         . .

Solo

|----------------10----------------------15--------|
|-----8h10-10/12----10h12-12/15-15/17-17----17-----|
|-7h9----------------------------------------------|
|--------------------------------------------------|
|--------------------------------------------------|
|--------------------------------------------------|


|----------------------------------------5---------|
|-15/13-12-12/10-8/7-7-7h8-7---5/7-7-7-8---8-7-5---|
|----------------------------9---------------------|
|--------------------------------------------------|
|--------------------------------------------------|
|--------------------------------------------------|

|--------------------------------------------------|
|--------------------------------------------------|
|-7h9-9-7----------7-------------7h9h7---9---------|
|--------9-7-7h9-9---9-9/7/5/7/9-------9-----------|
|--------------------------------------------------|
|--------------------------------------------------|


|----------------------17-15-----------------------|
|-8/10-10-10/8-8-8/7---------17-15-17---(17)-------|
|--------------------------------------------------|
|--------------------------------------------------|
|--------------------------------------------------|
|--------------------------------------------------|

  Visit MetalTabs.com for more metal tablature

bottom separator

Contact Us | Privacy Policy | Disclaimer
Copyright © 2001-2014 MetalTabs.com. All Rights Reserved.