top separator

Home

Forum

What's New

Submit a Tab

FAQ

Links

Contact Us

Link to Us

MuSpy.com

MetalTabs.com logo

Bands

0-9

A

B

C

D

E

F

G

H

I

J

K

L

M

N

O

P

Q

R

S

T

U

V

W

X

Y

Z

Search

What

Where
 

Suffocation - "Breeding The Spawn" Guitar Tab

Plain Text Version
More Suffocation Tabs

Hits: 5177
Rated: 3.22 out of 5 (9 votes)
Updated: 2004-09-09 04:31:59

 

By:

Chris Rezendes

sendpm.gif

email.gif

Important note
This tab is available online because we obtained explicit permission from Suffocation or their label.


#----------------------------------PLEASE NOTE---------------------------------#
#This file is the author's own work and represents their interpretation of the #
#song. You may only use this file for private study, scholarship, or research. #
#Unless specified otherwise, this is NOT an official tab from the band members.#
#------------------------------------------------------------------------------#

  Visit MetalTabs.com for more metal tablature
  
=============================================================================
Song: Breeding the Spawn
Artist: Suffocation
Album: Breeding the Spawn (Roadrunner, 1993)

Tabbed by Chris Rezendes (dudemcrude@yahoo.com)
Date started tab: 8/24/04
Date finished tab: 9/07/04

Tuning: Db/C# (one and a half steps down from standard)
Copy: First

Notation Key
~  : vibrato
^  : bend
.  : palm mute
r  : release
t  : trill
p  : pull-off
h  : hammer-on
x  : ghost note
/  : slide up
\  : slide down
>< : pinch harmonics

Comments: This song has a lot of very long riffs that are hard to read, so I
artificially broke them up to make it easier.  These riffs are Riff 2,
Riff 8, and Riff 9.  It makes the tab look cleaner as well, which is
nice I suppose.  This version of the song is played a bit faster than the
version on Pierced from Within, which is why it is shorter.  It is played
the same for the most part, but there are minor differences.  The minor
differences in playing as well as the time differences warrant a seperate
tab, so here it is.  This is the only song off this album that people
actually request, and I've gotten many requests for it.  Now that it's done
I'm going to tune up to Eb and do some updating of my older tabs, so look
out for those.  If you notice anything wrong, please point it out to me so
I can fix it for everybody, I'd certainly appreciate it.  Later.
=============================================================================

Riff 1 x1
e|---------------------------|-------------------------------|
B|---------------------------|-------------------------------|
G|---------------------------|-------------------------------|
D|------------4-------4------|-------------------------------|
A|--------4-5-----------4----|-------------------------------|
E|--22222-------22222-----5--|--222222-111111-444444-333333--|

e|---------------------------|---------------------------|
B|---------------------------|---------------------------|
G|---------------------------|---------------------------|
D|---------------------------|--5---------------3-2------|
A|--------3------------------|----4-3---5-4---4-----3----|
E|--11111---4-3-11111-3-4-3--|--------4-----5---------4--|

e|---------------------------|-------------------------------|
B|---------------------------|-------------------------------|
G|---------------------------|-------------------------------|
D|------------4-------4------|-------------------------------|
A|--------4-5-----------4----|-------------------------------|
E|--22222-------22222-----5--|--222222-111111-444444-333333--|

e|---------------------------|---------------------------|
B|---------------------------|---------------------------|
G|---------------------------|--------------6------------|
D|---------------------------|--5-----4-------5----------|
A|--------3------------------|----4-3---3-2-----4--------|
E|--11111---4-3-11111-3-4-3--|--------------------3-4-3--|

            TIME- 0:16

Riff 2A x1
e|---------------|---------------|--------------------------|---------------|
B|---------------|---------------|--------------------------|---------------|
G|---------------|---------------|--------------------------|---------------|
D|---------------|---------------|--------------------------|---------------|
A|---------------|---------------|--------------------------|---------------|
E|--22222-4-3-1--|--22222-4-3-1--|--2222222222222222-4-3-1--|--22222-4-3-1--|

e|---------------|---------------|---------------|---------------|
B|---------------|---------------|---------------|---------------|
G|---------------|---------------|---------------|---------------|
D|------5-----6--|---------------|--7-----6------|--7-----8------|
A|----4-----5----|---------------|----6-----5----|----6-----7----|
E|--3-----4------|--22222-4-3-1--|------5-----4--|------5-----6--|

e|---------------|---------------|----------------|
B|---------------|---------------|----------------|
G|---------------|---------------|----------------|
D|--9-----8------|--7-----8------|--9-----10------|
A|----8-----7----|----6-----7----|----8------9----|
E|------7-----6--|------5-----6--|------7------8--|

Riff 2B x1
e|---------------|---------------|--------------------------|---------------|
B|---------------|---------------|--------------------------|---------------|
G|---------------|---------------|--------------------------|---------------|
D|---------------|---------------|--------------------------|---------------|
A|---------------|---------------|--------------------------|---------------|
E|--22222-4-3-1--|--22222-4-3-1--|--2222222222222222-4-3-1--|--22222-4-3-1--|

                                 |*NOTE: LOOK BELOW RIFF FOR INFO|
e|---------------|---------------|---------------|---------------|
B|---------------|---------------|---------------|---------------|
G|---------------|---------------|---------------|---------------|
D|------5-----6--|---------------|--7-----6------|--7-----8------|
A|----4-----5----|---------------|----6-----5----|----6-----7----|
E|--3-----4------|--22222-4-3-1--|------5-----4--|------5-----6--|

e|---------------|---------------|----------------|---------------|
B|---------------|---------------|----------------|---------------|
G|---------------|---------------|----------------|---------------|
D|--9-----8------|--7-----8------|--9-----10------|--7-----8------|
A|----8-----7----|----6-----7----|----8------9----|----6-----7----|
E|------7-----6--|------5-----6--|------7------8--|------5-----6--|

e|---------------|---------------|---------------|---------------|
B|---------------|---------------|---------------|---------------|
G|---------------|---------------|---------------|---------------|
D|--9-----8------|--5------------|--------3------|------4--------|
A|----8-----7----|----6---6-5----|----4-5---4----|----3-----2-3--|
E|------7-----6--|------7-----6--|--3---------5--|--2-----1------|

*NOTE: From this point until the riff ends, guitar 2 plays the riff
       one octave higher!!!

            TIME- 0:44

Fill 1 x1
e|------------|---------|
B|------------|---------|
G|------------|---------|
D|--4-3--5-4--|----4-5--|
A|--4-3--5-4--|----4-5--|
E|--2-1--3-2--|--0-2-3--|
    . .  . .

Riff 3A x1
e|-----------------------------------|-----------------------------------|
B|-----------------------------------|-----------------------------------|
G|-----------------------------------|-----------------------------------|
D|-----------------------------------|-----------------------------------|
A|--2-------5-------2-------2--------|--2-------5-------2-------2--------|
E|----44444---44444---33333---33333--|----44444---44444---33333---33333--|

e|-----------------------------------|-----------------------------------|
B|-----------------------------------|-----------------------------------|
G|-----------------------------------|-----------------------------------|
D|-----------------------------------|------------------------------3-4--|
A|--1-------2-------1-------1--------|--1-------2-------1---2-1----------|
E|----33333---33333---22222---22222--|----33333---33333---3-----2-3------|

e|-----------------------------------|-----------------------------------|
B|-----------------------------------|-----------------------------------|
G|-----------------------------------|-----------------------------------|
D|-----------------------------------|-----------------------------------|
A|--2-------5-------2-------2--------|--2-------5-------2-------2--------|
E|----44444---44444---33333---33333--|----44444---44444---33333---33333--|

e|-----------------------------------|-----------------------------------|
B|-----------------------------------|-----------------------------------|
G|-----------------------------------|-----------------------------------|
D|-----------------------------------|-----------------------------------|
A|--1-------2-------1-------1--------|--1-------2-------1-----2----------|
E|----33333---33333---22222---22222--|----33333---33333---2-3---4-3-1-2--|

            TIME- 1:03

Riff 4 x1
e|------------------------------|---------------------------------|
B|------------------------------|---------------------------------|
G|------------------------------|---------------------------------|
D|------------------------------|------------------------4-3------|
A|-----------------------4-7-6--|----------------4-5-2-3-2-1-4-5--|
E|--222220-111110-444444-2-5-4--|--222220-111110-2-3-0-1-----2-3--|

e|------------------------------|---------------------------------|
B|------------------------------|---------------------------------|
G|------------------------------|---------------------------------|
D|------------------------------|----------------3-----3-2-----4--|
A|-----------------------4-7-6--|----------------1-3-4-1-0-4-5-2--|
E|--222220-111110-444444-2-5-4--|--222220-111110---1-2-----2-3----|

Riff 3B x1
e|-----------------------------------|-----------------------------------|
B|-----------------------------------|-----------------------------------|
G|-----------------------------------|-----------------------------------|
D|-----------------------------------|-----------------------------------|
A|--2-------5-------2-------2--------|--2-------5-------2-------2--------|
E|----44444---44444---33333---33333--|----44444---44444---33333---33333--|

e|-----------------------------------|-----------------------------------|
B|-----------------------------------|-----------------------------------|
G|-----------------------------------|-----------------------------------|
D|-----------------------------------|------------------------------3-4--|
A|--1-------2-------1-------1--------|--1-------2-------1---2-1----------|
E|----33333---33333---22222---22222--|----33333---33333---3-----2-3------|

e|-----------------------------------|-----------------------------------|
B|-----------------------------------|-----------------------------------|
G|-----------------------------------|-----------------------------------|
D|-----------------------------------|-----------------------------------|
A|--2-------5-------2-------2--------|--2-------5-------2-------2--------|
E|----44444---44444---33333---33333--|----44444---44444---33333---33333--|

e|-----------------------------------|---------------------------|
B|-----------------------------------|---------------------------|
G|-----------------------------------|---------------------------|
D|-----------------------------------|---------------------------|
A|--1-------2-------1-------1--------|--1-------2-------1-----2--|
E|----33333---33333---22222---22222--|----33333---33333---2-3----|

            TIME- 1:28

Fig. 1 x1
e|--------|--------------|--------|--------------|--------|--------------|
B|--------|--------------|--------|--------------|--------|--------------|
G|--------|--------------|--------|--------------|--------|--------------|
D|--4--3--|--5--6--5--4--|--4--3--|--5--6--5--8--|--4--3--|--5--6--5--4--|
A|--4--3--|--5--6--5--4--|--2--1--|--5--6--5--6--|--2--1--|--5--6--5--4--|
E|--2--1--|--3--4--3--2--|--2--1--|--3--4--3--6--|--2--1--|--3--4--3--2--|
             .  .  .  .              .  .  .                 .  .  .  .

e|--------------------|--------|--------------|--------|--------------|
B|--------------------|--------|--------------|--------|--------------|
G|--------------------|--------|--------------|--------|--------------|
D|--6--6--5--4--4--3--|--4--3--|--5--6--5--4--|--4--3--|--5--6--5--8--|
A|--4--4--3--2--2--1--|--4--3--|--5--6--5--4--|--2--1--|--5--6--5--6--|
E|--4--4--3--2--2--1--|--2--1--|--3--4--3--2--|--2--1--|--3--4--3--6--|
    .  .  .  .  .  .              .  .  .  .              .  .  .  .

            TIME- 1:42

Fig. 2 x2
e|--------------------|-----------|
B|--------------------|-----------|
G|--------------------|-----------|
D|--4-----------------|--4--------|
A|--2-----------------|--2--------|
E|--2--1--1--1--1--1--|--2--1--1--|

e|-----------------------------------------------|
B|-----------------------------------------------|
G|-----------------------------------------------|
D|--4--4--5--4-----------------------------------|
A|--2--2--3--2-----------------------------------|
E|--2--2--3--2--1--1--1--1--1--1--1--1--1--1--1--|

e|--------------------|-----------|
B|--------------------|-----------|
G|--------------------|-----------|
D|--4-----------------|--4--------|
A|--2-----------------|--2--------|
E|--2--1--1--1--1--1--|--2--1--1--|

e|-----------------------------|---------------------------|
B|-----------------------------|---------------------------|
G|-----------------------------|--------------333----------|
D|--4--4--5--4-----------------|----------444-----222------|
A|--2--2--3--2-----------------|--111-555-------------111--|
E|--2--2--3--2--1--1--1--1--1--|---------------------------|

Fill 2 x1 (really just a continuation of the last part of Fig. 2)
e|---------------------------|
B|---------------------------|
G|--222----------------------|
D|------111------------------|
A|----------000-444-333------|
E|----------------------444--|

            TIME- 2:20
Riff 5 x1
e|-----------------------------------------|-----------|
B|-----------------------------------------|-----------|
G|-----------------------------------------|-----------|
D|--4---------7---------5------------------|------6----|
A|--2---------5---------3------------------|--3-5-4-5--|
E|----333-444---333-444---333-444-333-444--|--1-3---3--|

e|---------------------------|-------------------|-----------|
B|---------------------------|-------------------|-----------|
G|---------------------------|--555-444----------|-----------|
D|--4-3---------6---------5--|----------333------|------6----|
A|--2-1---------4---------3--|--------------222--|--5-6-4-4--|
E|------333-444---333-444----|-------------------|--3-4---2--|

e|-------------------------------------------|-----------|
B|-------------------------------------------|-----------|
G|-------------------------------------------|-----------|
D|--5-4---------7---------5------------------|------6----|
A|--3-2---------5---------3------------------|--3-5-4-5--|
E|------333-444---333-444---333-444-333-444--|--1-3---3--|

e|---------------------------|-------------------|-----------|
B|---------------------------|-------------------|-----------|
G|---------------------------|--555-444----------|-----------|
D|--4-3---------6---------5--|----------333------|------6----|
A|--2-1---------4---------3--|--------------222--|--5-6-4-4--|
E|------333-444---333-444----|-------------------|--3-4---2--|

            TIME- 2:37

Fill 3 x2 (chords played over bass solo)
e|-------|
B|-------|
G|-------|
D|--4-3--|
A|--4-3--|
E|--2-1--|

Riff 6 x1
e|-----------|----------------|-------------------------------|
B|-----------|----------------|-------------------------------|
G|------6----|----------------|-------------------------------|
D|--4-5-6-3--|--5-4------4-3--|--5-4-----6-5-----5-4-----4-3--|
A|--4-5-4-3--|------3-2--4-3--|------3-2-----4-3-----3-2-4-3--|
E|--2-3---1--|-----------2-1--|--------------------------2-1--|

e|--------------------|-------------------|
B|--------------------|-------------------|
G|--5-4---------------|-------------------|
D|------3-2--5-4------|--4-3-----3-2------|
A|---------------5-4--|------4-3-----3-2--|
E|--------------------|-------------------|

e|-----------|----------------|-------------------------------|
B|-----------|----------------|-------------------------------|
G|------6----|----------------|-------------------------------|
D|--4-5-6-3--|--5-4------4-3--|--5-4-----6-5-----5-4-----4-3--|
A|--4-5-4-3--|------3-2--4-3--|------3-2-----4-3-----3-2-4-3--|
E|--2-3---1--|-----------2-1--|--------------------------2-1--|

e|--------------------|-------------------|-----------|
B|--------------------|-------------------|-----------|
G|--5-4---------------|-------------------|------6----|
D|------3-2--5-4------|--4-3-----3-2------|--4-5-6-3--|
A|---------------5-4--|------4-3-----3-2--|--4-5-4-3--|
E|--------------------|-------------------|--2-3---1--|

            TIME- 2:55

Fig. 3 x2
e|--------------|--------------|---------------------------|
B|--------------|--------------|---------------------------|
G|--------------|--------------|---------------------------|
D|--2--3---3----|--6-----------|---------------------------|
A|--2-----------|--6--6---6----|--4---3---2---4---3---5----|
E|--0----0---0--|--4----4---4--|----0---0---0---0---0---0--|
       . . . .        . . . .     . . . . . . . . . . . .

e|--------------|--------------|--------------1---0----|
B|--------------|--------------|----------------1---0--|
G|--------------|--------------|------------3----------|
D|--2--3---3----|--6-----------|--------1-2------------|
A|--2-----------|--6--6---6----|--3---4----------------|
E|--0----0---0--|--4----4---4--|----1------------------|
       . . . .        . . . .     . . . . . . . . . .

e|--------------|--------------|---------------------------|
B|--------------|--------------|---------------------------|
G|--------------|--------------|---------------------------|
D|--2--3---3----|--6-----------|---------------------------|
A|--2-----------|--6--6---6----|--4---3---2---4---3---5----|
E|--0----0---0--|--4----4---4--|----0---0---0---0---0---0--|
       . . . .        . . . .     . . . . . . . . . . . .

e|--------------|--------------|---------------------------|
B|--------------|--------------|---------------------------|
G|--------------|--------------|---------------------------|
D|--2--3---3----|--6-----------|---------------------------|
A|--2-----------|--6--6---6----|----6---7---9---6---7---9--|
E|--0----0---0--|--4----4---4--|--5---6---8---5---6---8----|
       . . . .        . . . .     . . . . . . . . . . . .

            TIME- 3:24

Riff 7 x2
e|---------------------------|---------------------------|
B|------------5-----------5--|----------------5---7---8--|
G|----------6-----------6----|------7---7-------4---6----|
D|--------6-----------6------|---------------------------|
A|--444-7-------444-7--------|--555---5---5-5------------|
E|---------------------------|---------------------------|

e|---------------------------|---------------------------|
B|------------5-----------3--|---------------------------|
G|----------6-----------4----|---------------------------|
D|--------6-----------4------|---------------------------|
A|--444-7-------222-5--------|----5---7---9---5---7---8--|
E|---------------------------|--4---6---8---4---6---7----|

e|---------------------------|---------------------------|
B|------------5-----------5--|---------------------------|
G|----------6-----------6----|------7---7---8---8---5----|
D|--------6-----------6------|---------------------------|
A|--444-7-------444-7--------|--555---5---5---6---6---3--|
E|---------------------------|---------------------------|

e|---------------------------|---------------------------|
B|---------------------------|---------------------------|
G|------------5-----------5--|---------------------------|
D|----------5-----------5----|----7---4---2---6---2---5--|
A|--------7-----------7------|--6---3---1---5---1---4----|
E|--555-8-------555-8--------|---------------------------|

            TIME- 3:52

Riff 8A x1
e|-------------------------------------------------------------|
B|-------------------------------------------------------------|
G|-------------------------------------------------------------|
D|-------------------------------111111------------------------|
A|---------555-444--------333333--------111111-----------------|
E|--222222---------555555----------------------333333-444-222--|

e|----------------------------------------------------------------|
B|----------------------------------------------------------------|
G|-------------------------------------------------------111------|
D|-----------------333333-222222-----------------------------222--|
A|---------333-444---------------111---------222-333--------------|
E|--111111---------------------------111-222---------444----------|

Riff 8B x1
 |                         Guitar 1                            |
e|-------------------------------------------------------------|
B|-------------------------------------------------------------|
G|-------------------------------------------------------------|
D|-------------------------------111111------------------------|
A|---------555-444--------333333--------111111-----------------|
E|--222222---------555555----------------------333333-444-222--|
 |                                                             |
 |                         Guitar 2 (one octave higher)        |
e|-------------------------------------------------------------|
B|-------------------------------444444------------------------|
G|---------777-666--------555555--------333333-----------------|
D|--444444---------777777----------------------555555-666-444--|
A|-------------------------------------------------------------|
E|-------------------------------------------------------------|

 |           Guitar 1             |
e|--------------------------------|-----------|-----------|
B|--------------------------------|-----------|-----------|
G|--------------------------------|-----------|-----------|
D|-----------------333333-222222--|--5-5-5-5--|--5-5-5-5--|
A|---------333-444----------------|--5-5-5-5--|--5-5-5-5--|
E|--111111------------------------|--3-3-3-3--|--3-3-3-3--|
 |                                |
 |           Guitar 1             |
e|--------------------------------|
B|-----------------666666-555555--|
G|---------555-666----------------|
D|--333333------------------------|
A|--------------------------------|
E|--------------------------------|

            TIME- 4:10

Riff 8A x1
e|-------------------------------------------------------------|
B|-------------------------------------------------------------|
G|-------------------------------------------------------------|
D|-------------------------------111111------------------------|
A|---------555-444--------333333--------111111-----------------|
E|--222222---------555555----------------------333333-444-222--|

e|----------------------------------------------------------------|
B|----------------------------------------------------------------|
G|-------------------------------------------------------111------|
D|-----------------333333-222222-----------------------------222--|
A|---------333-444---------------111---------222-333--------------|
E|--111111---------------------------111-222---------444----------|

Riff 8C x1
 |                         Guitar 1                            |
e|-------------------------------------------------------------|
B|-------------------------------------------------------------|
G|-------------------------------------------------------------|
D|-------------------------------111111------------------------|
A|---------555-444--------333333--------111111-----------------|
E|--222222---------555555----------------------333333-444-222--|
 |                                                             |
 |                         Guitar 2 (one octave higher)        |
e|-------------------------------------------------------------|
B|-------------------------------444444------------------------|
G|---------777-666--------555555--------333333-----------------|
D|--444444---------777777----------------------555555-666-444--|
A|-------------------------------------------------------------|
E|-------------------------------------------------------------|

 |           Guitar 1             |
e|--------------------------------|---------------|---------------|
B|--------------------------------|---------------|---------------|
G|--------------------------------|---------------|---------------|
D|-----------------333333-222222--|--5-5-5-5--5t6-|--5-5-5-5--5t6-|
A|---------333-444----------------|--5-5-5-5------|--5-5-5-5------|
E|--111111------------------------|--3-3-3-3------|--3-3-3-3------|
 |                                |
 |           Guitar 1             |
e|--------------------------------|
B|-----------------666666-555555--|
G|---------555-666----------------|
D|--333333------------------------|
A|--------------------------------|
E|--------------------------------|

            TIME- 4:26

Riff 9A x1
e|---------------------|----------------------|
B|---------------------|----------------------|
G|---------------------|----------------------|
D|-----------55555555--|-----------5555-4444--|
A|---------------------|----------------------|
E|--33333333-----------|--33333333------------|

e|------------------------------------------|
B|------------------------------------------|
G|------------------------------------------|
D|-----------5555-4444-6666-5555------------|
A|-------------------------------5555-------|
E|--33333333--------------------------6666--|

e|---------------------|----------------------|
B|---------------------|----------------------|
G|---------------------|----------------------|
D|-----------33333333--|-----------3333-2222--|
A|---------------------|----------------------|
E|--11111111-----------|--11111111------------|

e|----------------|-----------------------|
B|----------------|-----------------------|
G|----------------|-----------------------|
D|-----------4-3--|--5555-4444------------|
A|-----------4-3--|-----------------------|
E|--11111111-2-1--|------------3333-2222--|

Riff 9B x1
e|---------------------|----------------------|
B|---------------------|----------------------|
G|---------------------|----------------------|
D|-----------55555555--|-----------5555-4444--|
A|---------------------|----------------------|
E|--33333333-----------|--33333333------------|

e|------------------------------------------|
B|------------------------------------------|
G|------------------------------------------|
D|-----------5555-4444-6666-5555------------|
A|-------------------------------5555-------|
E|--33333333--------------------------6666--|

e|---------------------|----------------------|
B|---------------------|----------------------|
G|---------------------|----------------------|
D|-----------33333333--|-----------3333-2222--|
A|---------------------|----------------------|
E|--11111111-----------|--11111111------------|

e|------------------------------------------|
B|------------------------------------------|
G|------------------------------------------|
D|-----------3333-2222----------------------|
A|---------------------3333-2222------------|
E|--11111111---------------------3333-2222--|

            TIME- 4:42

  Visit MetalTabs.com for more metal tablature

bottom separator

Contact Us | Privacy Policy | Disclaimer | Legal Notice
Copyright © 2001-2014 MetalTabs.com. All Rights Reserved.