top separator

Home

Forum

FAQ

Contact Us

Link to Us

MetalTabs.com logo

Bands

0-9

A

B

C

D

E

F

G

H

I

J

K

L

M

N

O

P

Q

R

S

T

U

V

W

X

Y

Z

In Flames - "Acoustic Medley" Guitar Tab

Plain Text Version
More In Flames Tabs

Hits: 20883
Rated: 4.61 out of 5 (41 votes)
Updated: 2004-09-06 14:30:01

By:

younguitarist


#----------------------------------PLEASE NOTE---------------------------------#
#This file is the author's own work and represents their interpretation of the #
#song. You may only use this file for private study, scholarship, or research. #
#Unless specified otherwise, this is NOT an official tab from the band members.#
#------------------------------------------------------------------------------#

  Visit MetalTabs.com for more metal tablature
  
Artist: In Flames
Album: Black-Ash Inheritance
Song: Acoustic Medley
Transcribed by:Alvaro Ramirez
Email me for any comments or corrections:lazyguitarist@musician.net
Tune guitars to Eb

=======================================================================
This is the hardest songs I tabbed out because its played with 2 guitars
which is very hard is hard to tab.I gave it my best shot.
=======================================================================

.  - palm mute           /  - slide up to     ah - Artificial harmonics
\  - slide down to       ~  - vibrato
h  - hammer on           b  - Bend
p  - pull off            Suffixes for bend
t  - tap                 f  - full bend    h - half bend
ph - pinched harmonic    q  - quarter bend t - tap bend
*  - see comment         ^  - Hold bend    r release bend
x  - Staccato            ~  - vibrato bend
,  - slight palm mute    () - ghost note, sustained note
"  - tremolo note        <> - Trill

   Riff 1 guitar 1
|------------------------------------------------------------|
|-------------------------------------------10h-8~-6-8-6-5-3-|
|-5-------5-------7/9--5-------5-------7/9-------------------|
|-7--7-7--7--7-7-------7--7-7--7--7-7------------------------|2x
|------------------------------------------------------------|
|------------------------------------------------------------|
|                                                            |
|  Riff 1 guitar 2                                           |
|--------------------------------------------5---------------|
|-----------------------------------------------5~---5-------|
|-5-------5-------7/9--5-------5-------7/9---------7---7-5-4-|
|-7-------7------------7-------7-----------------------------|2x
|----0-0-----0-0----------0-0-----0-0------------------------|
|------------------------------------------------------------|

   Riff 2 guitar 1
|--------------------------------------------------------------|
|--------------------------------5----6-/8-6-5-----------5--8~-|
|-5--4~--4-5-7-5--4-----------5----5------------7--5-----------|
|--------------------7-----7--------------------------7--------|2x
|--------------------------------------------------------------|
|--------------------------------------------------------------|
|                                                              |
|  Riff 2 guitar 2                                             |
|--------------------------------------------------------------|
|-5-------5-6--5-----------------5----6-/8-6-5-----------5-----|
|----7h-7---------7--5--5--5--7----7------------7--5--------7~-|
|-----------------------------------------------------7--------|2x
|--------------------------------------------------------------|
|--------------------------------------------------------------|


Repeat riff 1 two times.

   Riff 3 guitar 1
|------------------------------------------------|
|------------------------------------------------|
|------------------------------------------------| I dont know how many
|------------------------------------------------| times.Just listen
|----0-----0-----0-----0-----0-----0-----0-----0-| to the song.
|-5-----5-----5-----5-----5-----5-----5-----5----|
|                                                |
|  Riff 3 guitar 2                               |
|------------------------------------------------|
|-------5-----3-----0-----------5-----0----------|a lot of times
|-5-----5-----4-----0-----2-----5-----0-----3----|
|-7-----------------------3-----------------4----|
|------------------------------------------------|
|------------------------------------------------|

  Riff 4 guitar 1
|---------------------------------------------------------------------|
|-----------------------------~---------------------------------------|
|-----------------------4-2~------------------------------------------|
|---2--4-4-5-5~--2---5-----------2---0--0-2--2---2--4--5--5--4--2--4--|
|---------------------------------------------------------------------|
|-0---0--------0--0---------0--0--------------------------------------|
|                                                                     |
|  Riff 4 guitar 2 im not sure about this riff but its close          |
|---------------------------------------------------------------------|
|---------------------------------------------------------------------|
|---------------------------------------------------2--4-4-4p2h----2--|
|---2------------2---5--4-4~-----2---4--4-5--5---5--------------5-----|
|------5-5-7-7~-------------------------------------------------------|
|-0--0---------0--0---------0--0--------------------------------------|


Go back to riff 3. both guitars

   Riff 5 guitar 1
|------------------------------------------------------|
|-------/7-5~-/8-7~-5---------------7------------------|
|---------------------7-4h5p4---------7-9----7-4-5-7-5-|
|-----9-----------------------7-5-5~------10-----------|
|---7--------------------------------------------------|
|-0----------------------------------------------------|
|                                                      |
|  Riff 5 guitar 2                                     |
|-------------/7-5~------------------------------------|
|-------/7-5~-------8-7-5------------------------------|
|-----------------------------7-5-5~--4-5-7--4---------|
|-----9----------------------------------------5-7-4---|
|---7------------------------------------------------5-|
|-0----------------------------------------------------|



   Riff 6 guitar 1
|--------------------7-5~--7-5\3-3~-------------------------|
|-------7\--5-/8--7~----------------------------------------|
|-----------------------------------7--7-9-----7------------|
|-----9------------------------------------10----9-10--7----|
|---7----------------------------------------------------10-|
|-0---------------------------------------------------------|
|                                                           |
|  Riff 6 guitar 2                                          |
|-------------5-7-5~-10-8~-10-8\7-7~------------------------|
|-------7\--5-----------------------------------------------|
|-----------------------------------4--4-5-4----------------|
|-----9----------------------------------------7---5--7-4---|
|---7-----------------------------------------------------5-|
|-0---------------------------------------------------------|


   Riff 7 guitar 1 both guitars
|-----------------------------------|
|--8--7------------8-7--------------|
|--------7-------------7------------|
|-----------7h9p10-------7---5---4--|
|--------------------------0---0----|
|-----------------------------------|


   Riff 8 guitar 1
|-------------------------------------------------------------|
|-------------------------------------------------------------|
|-------------------------------------------------------------|
|------2-4-/5-5~------2-4/5-/9---7~-----2-4-5-7-/9-10-9-7-5-4-|
|----2--------------2----------0------2-----------------------|
|-0---------------0-----------------0-------------------------|
|                                                             |
|  Riff 8 guitar 2                                            |
|-------------------------------------------------------------|
|-------------------------------------------------------------|
|-------------------------------------------------------------|
|-----2-5-/10-10~-----2-4/5-/9---7~-----2-4-5-----------------|
|---2---------------2----------0------2-------02--3--2-0-----|
|-0---------------0-----------------0---------------------3-2-|

Ending...both guitars
|---------0--------0----|
|-------0---0------0----|
|-------------0----0----|
|-----2---------2--2----|
|---2--------------2----|
|-0----------------0----|

The end

  Visit MetalTabs.com for more metal tablature

bottom separator

Contact Us | Privacy Policy | Disclaimer
Copyright © 2001-2014 MetalTabs.com. All Rights Reserved.