top separator

Home

Forum

What's New

Submit a Tab

FAQ

Links

Contact Us

Link to Us

MetalTabs.com logo

Bands

0-9

A

B

C

D

E

F

G

H

I

J

K

L

M

N

O

P

Q

R

S

T

U

V

W

X

Y

Z

Search

What

Where
 

Alchemist - "Road To Ubar" Guitar Tab

Plain Text Version
More Alchemist Tabs

Hits: 3935
Rated: 4.00 out of 5 (2 votes)
Updated: 2004-09-03 14:54:58

 

By:

Hopkins-WFG

sendpm.gif

email.gif

Important note
This tab is available online because we obtained explicit permission from Alchemist or their label.


#----------------------------------PLEASE NOTE---------------------------------#
#This file is the author's own work and represents their interpretation of the #
#song. You may only use this file for private study, scholarship, or research. #
#Unless specified otherwise, this is NOT an official tab from the band members.#
#------------------------------------------------------------------------------#

  Visit MetalTabs.com for more metal tablature
  
Band:  Alchemist
Album: Spiritech
Song:  Road to Ubar

Copyright (c)  Shock Records Australia / 1997
Version 1.0 - 02/09/04

Transcribed By: Impaler / Hopkins-WFG
E mail: brokenshaw@yahoo.com/teh_impaler@hotmail.com

.  - palm mute           /  - slide up to
\  - slide down to       ~  - vibrato
h  - hammer on           b  - Bend
p  - pull off            Suffixes for bend
t  - tap                 f  - full bend    h - half bend
ph - pinched harmonic    q  - quarter bend t - tap bend
*  - see comment         ^  - Hold bend    r release bend
x  - Stuccatto           ~  - vibrato bend
,  - slight palm mute    () - ghost note, sustained note
"  - tremolo note        <> - Trill

Tuning: C F A# D# G C


Intro: Clean Guitar W/Echo
C ||-------------------|---------------|--0----------------|-----------|
G ||---------0--1---1--|--0------------|-----4--0--1-------|-----------|
D#||*-----1------------|-----1---------|----------------1--|-----------|
A#||*--2---------------|--------2------|-------------------|--2--1--2--|
F ||-------------------|---------------|-------------------|-----------|
C ||-------------------|---------------|-------------------|-----------|

Chorus:
|---------------------------|--------------------------|
|---------0-----------------|--------0-----------------|
|*-----1--------------------|-----1--------------------|
|*--2--------5----5--5--5-5-|--2--------5----5--5--5-5-|
|------------3----3--3--3-3-|-----------3----3--3--3-3-|
|---------------------------|--------------------------|

|---------------------------|--------------------------|
|---------0-----------------|--------0-----------------|
|------1--------------------|-----1-------------------*|
|--2---------5----5--5--5-5-|--2----------------------*|
|------------3----3--3--3-3-|-----------7---7--7--7-7--|
|---------------------------|-----------5---5--5--5-5--|


Bridge I

|------------------|--------------|--0-----------------|--------------|
|------0--1-----1--|-0------------|-----4--0--1--------|--------------|
|----1-------------|----1---------|-----------------1--|--4--3--4-----|
|--2---------------|--------2-----|--------------------|--2--1--2-----|
|------------------|--------------|--------------------|--------------|
|------------------|--------------|--------------------|--------------|


Verse:
|-------------------------------|-------------------------------|
|-------------------------------|-------------------------------|
|*------------------------------|-------------------------------|
|*--4/5-5-5--5/4/5-5-5--5-4--2--|--4/5-5-5----------------------|
|---2/3-3-3--3/2/3-3-3--3-2--0--|--2/3-3-3--6--6-6-6-6-6-6-6-6--|
|-------------------------------|-----------4--4-4-4-4-4-4-4-4--|
                                                              3x
|------------------------------|--------------------------------|
|------------------------------|--------------------------------|
|------------------------------|-------------------------------*|
|--4/5-5-5--5/4/5-5-5--5-4--2--|--4/5-5-5----------------------*|
|--2/3-3-3--3/2/3-3-3--3-2--0--|--2/3-3-3--6--6-6-6-6-6-6-6-6---|
|------------------------------|-----------4--4-4-4-4-4-4-4-4---|

Chorus

Bridge I

-Break for Percussion Solo-

Mid Section I:
|--------------------|---------------------|--0------------------|
|-------0--1------1--|--0------------------|-----4--0--1---------|
|----1---------------|-----1---------------|------------------1--|
|-2------------------|--------2------------|---------------------|
|--------------------|---------------------|---------------------|
|--------------------|---------------------|---------------------|

|--------------------|---------------------|---------------------|
|--------------------|--------0--1------1--|--0------------------|
|--------------------|-----1---------------|-----1---------------|
|-2--1--2------------|--2------------------|--------2------------|
|--------------------|---------------------|---------------------|
|--------------------|---------------------|---------------------|

|-0------------------|---------------------|
|----4--0--1---------|---------------------|
|-----------------1--|---------------------|
|--------------------|--2--1--2------------|
|--------------------|---------------------|
|--------------------|---------------------|

MidSection II:
1st
G|--------------------------|----------------------|
U|---------0--1------1------|--0-------------------|
I|*-----1-------------------|-----1----------------|
T|*--2----------------------|--------2-------------|
A|--------------------------|----------------------|
R|--------------------------|----------------------|
2nd W/Slide
G|---5/-----12------12--12--|--14------12----------|
U|--------------------------|----------------------|
I|*-------------------------|----------------------|
T|*-------------------------|----------------------|
A|--------------------------|----------------------|
R|--------------------------|----------------------|

1st                                               X2
G|--0-----------------------|---------------------||
U|-----4--0--1--------------|---------------------||
I|-----------------------1--|--------------------*||
T|--------------------------|--2--1--2-----------*||
A|--------------------------|---------------------||
R|--------------------------|---------------------||
2nd
G|--17--17--17/-12------12--|--11/-12/-11/-12-----||
U|--------------------------|---------------------||
I|--------------------------|--------------------*||
T|--------------------------|--------------------*||
A|--------------------------|---------------------||
R|--------------------------|---------------------||

Mid Section I x2

Bridge I

Bridge II:
|-------------------------------|---------------------------------||
|-------------------------------|---------------------------------||
|*--6-7-7-7-7---7-6-7-7-7-7---7-|--6-7-7-7-7---5-5-5-5-4---------*||
|*--4-5-5-5-5---5-4-5-5-5-5---5-|--4-5-5-5-5-------------5-4-5-4-*||
|-------------------------------|---------------------------------||
|-------------------------------|---------------------------------||

Bridge I

Bridge II

Chorus

Outro:
|-----------------------|---------------------|
|--------0--1--------1--|--0------------------|
|-----1-----------------|-----1---------------|
|--2--------------------|--------2------------|
|-----------------------|---------------------|
|-----------------------|---------------------|

|--0--------------------|---------------------|---|---|
|-----4--0--1-----------|---------------------|---|---|
|--------------------1--|--4--3--4------------|---|---|
|-----------------------|--2--1--2------------|---|---|
|-----------------------|---------------------|---|---|
|-----------------------|---------------------|---|---|

|--------------------The-End------------------|

  Visit MetalTabs.com for more metal tablature

bottom separator

Contact Us | Privacy Policy | Disclaimer | Legal Notice
Copyright © 2001-2014 MetalTabs.com. All Rights Reserved.