top separator

Home

Forum

What's New

Submit a Tab

FAQ

Links

Contact Us

Link to Us

MetalTabs.com logo

Bands

0-9

A

B

C

D

E

F

G

H

I

J

K

L

M

N

O

P

Q

R

S

T

U

V

W

X

Y

Z

Search

What

Where
 

Suffocation - "Souls To Deny" Guitar Tab

Plain Text Version
More Suffocation Tabs

Hits: 7945
Rated: 4.00 out of 5 (4 votes)
Updated: 2004-09-05 14:34:34

 

By:

autumnlrds

sendpm.gif

email.gif

Important note
This tab is available online because we obtained explicit permission from Suffocation or their label.


#----------------------------------PLEASE NOTE---------------------------------#
#This file is the author's own work and represents their interpretation of the #
#song. You may only use this file for private study, scholarship, or research. #
#Unless specified otherwise, this is NOT an official tab from the band members.#
#------------------------------------------------------------------------------#

  Visit MetalTabs.com for more metal tablature
  
                                SOULS TO DENY
                           As recorded by Suffocation
                       (From the 2004 Album SOULS TO DENY)

Music by Terrance Hobbs
Transcribed by Matthew Williams AKA autumnlrds
.  - palm mute           /  - slide up to
\  - slide down to       ~  - vibrato
h  - hammer on           b  - Bend
p  - pull off            Suffixes for bend
t  - tap                 f  - full bend    h - half bend
ph - pinched harmonic    q  - quarter bend t - tap bend
*  - see comment         ^  - Hold bend    r release bend
x  - Stacatto            ~  - vibrato bend
,  - slight palm mute    () - ghost note, sustained note
"  - tremolo note        <> - Trill


See Segno "$", D.S. al coda symbols etc. for where to go back and repeat parts
and Coda "&" symbols for where to skip to another section.
TUNING  Db, Gb, B, E, Ab, Db


 Drum Fill (after effects)
  Fast Death Metal Q=203
 12/8
  Gtrs I, II
|-------------|
|-------------|
|-------------|
|-------------|
|-------------|
|-------------|


   Verse (8th note snare)
    $
    N.C.
   12/8
                PM--------|   PM    PM    PM  PM------------|         PM
||------------------------------------|----------------------------------|
||o-----------------------------------|----------------------------------|
||------------------------------------|----------------------------------|
||--5-5-5-5-5-5-----------------6-5---|-5---4-----------------4-4-4-4----|
||o---------------------------------2-|----------------------------------|
||--------------3-4-5-3-3-4-4-4-------|---0---1-2-3-2-2-2-2-2---------2--|


                                                     To Coda
              PM--------|   PM    PM    PM  PM      PM|
|-----------------------------------|--------------------------||
|-----------------------------------|-------------------------o||
|-----------------------------------|--------------------------||
|-5-5-5-5-5-5-----------------6-5---|-6---5---6-5-8-----8-8-9--||
|-----------------------------------|-------------------------o||
|-------------3-4-5-3-3-4-4-4-----7-|---0---0-------0-0--------||


 Chorus
  Moderately Q=129
 4/4
  Gtr I
  PM--------------------------------------|
|-------------------------------------------|
|-------------------------------------------|
|-------------------------------------------|
|-------------------------------------------|
|-5-5-5-5-5-5-------------6-6-6-6-6-6-------|
|-------------3-3-3-3-3-3-------------3-4-3-|
|
| Gtr II
|                                     PM--|
|-------------------------------------------|
|-------------------------------------------|
|-------------------------------------------|
|-------------------------------------------|
|-------------------------------------------|
|-------------------------------------3-4-3-|


    PM|   PM  PM--------------------|
|--------------------------------------|
|--------------------------------------|
|--------------------------------------|
|--------------------------------------|
|-5-----6---6--------------------------|
|---6-3---3---4-4-4-4-4-4-4-4-4-4-4-4--|
|
|   PM|   PM  PM--------------------|
|--------------------------------------|
|--------------------------------------|
|--------------------------------------|
|--------------------------------------|
|-5-----6---6--------------------------|
|---6-3---3---4-4-4-4-4-4-4-4-4-4-4-4--|


  Gtrs I, II
  PM--------------------------------------|     PM  PM--|   PM|  ~~
|-------------------------------------------|------------------------|
|-------------------------------------------|------------------------|
|-------------------------------------------|------------------------|
|-------------5-5-5-5-5-5-------------------|-4---4-------6-----/7---|
|-------------------------4-4-4-4-4-4-------|---------------5--------|
|-3-3-3-3-3-3-------------------------2-3-2-|---2---2-1-0-----4------|


  PM--------------------------------------|
|-------------------------------------------|
|-------------------------------------------|
|-------------------------------------------|
|-------------------------------------------|
|-5-5-5-5-5-5-------------6-6-6-6-6-6-------|
|-------------3-3-3-3-3-3-------------3-4-3-|


    PM|   PM  PM--------------------|
|-------------------------------------|
|-------------------------------------|
|-------------------------------------|
|-------------------------------------|
|-5-----6---6-------------------------|
|---6-3---3---4-4-4-4-4-4-4-4-4-4-4-4-|


  PM--------------------------------------|     PM  PM--|   PM|  ~~
|-------------------------------------------|------------------------|
|-------------------------------------------|------------------------|
|-------------------------------------------|------------------------|
|-------------5-5-5-5-5-5-------------------|-4---4-------6-----/7---|
|-------------------------4-4-4-4-4-4-------|---------------5--------|
|-3-3-3-3-3-3-------------------------2-3-2-|---2---2-1-0-----4------|


    Gtr I
    PM--------------------------------------|
||--------------------------------------------|
||o-------------------------------------------|
||--------------------------------------------|
||--------------------------------------------|
||o-5-5-5-5-5-5-------------6-6-6-6-6-6-------|
||--------------3-3-3-3-3-3-------------3-4-3-|
|
|   Gtr II
|   PM--------------------------------------|
||--------------------------------------------|
||o-------------------------------------------|
||--------------------------------------------|
||--------------------------------------------|
||o-8-8-8-8-8-8-------------9-9-9-9-9-9-------|
||--------------6-6-6-6-6-6-------------3-4-3-|


    PM|   PM  PM--------------------|
|---------------------------------------|
|---------------------------------------|
|---------------------------------------|
|---------------------------------------|
|-5-----6---6---------------------------|
|---6-3---3---4-4-4-4-4-4-4-4-4-4-4-4---|
|
|   PM|   PM  PM--------------------|
|---------------------------------------|
|---------------------------------------|
|---------------------------------------|
|---------------------------------------|
|-8-----9---9---------------------------|
|---9-6---6---7-7-7-7-7-7-7-7-7-7-7-7---|


  Gtr I
  PM--------------------------------------|     PM  PM--|         ~~~
|-------------------------------------------|--------------------------||
|-------------------------------------------|-------------------------o||
|-------------------------------------------|--------------------------||
|-------------5-5-5-5-5-5-------------------|-4---4-------6------/7----||
|-------------------------4-4-4-4-4-4-------|---------------5---------o||
|-3-3-3-3-3-3-------------------------2-3-2-|---2---2-1-0-----4--------||
|
| Gtr II
| PM--------------------------------------|     PM  PM--|   PM|   ~~~
|-------------------------------------------|--------------------------||
|-------------------------------------------|-------------------------o||
|-------------------------------------------|--------------------------||
|-------------8-8-8-8-8-8-------------------|-4---4-------9-----/10----||
|-------------------------7-7-7-7-7-7-------|---------------8---------o||
|-6-6-6-6-6-6-------------------------2-3-2-|---2---2-1-0-----7--------||


 Bridge 1
                                           D.S. al Coda
  F5F#5F5 N.C.        G5Ab5G5   F5F#5F5 N.C.  (A(E(E(Am))
 4/4
  Gtr I
          PM--------|                   PM--------|
|-----------------------------|-------------------------|
|-----------------------------|-------------------------|
|-----------------------------|-------------------------|
|-----------------------------|---------------------7---|
|-3-/4-\3-------------5-/6-\5-|-3-/4-\3---------6-7-----|
|-1-/2-\1-0-1-0-2-0-1-3-/4-\3-|-1-/2-\1-0-1-0-5---------|
|
| Gtr II
|                                             PM--|
|-----------------------------|-------------------------|
|-----------------------------|-------------------------|
|-----------------------------|---------------------5---|
|-----------------------------|-----------------4-4-----|
|-3-/4-\3---------------------|---------------3---------|
|-1-/2-\1---------------------|-------------------------|


 Bridge 2
  Very Fast Q=270
  &
  N.C.
 4/4
  Gtr I
|-------------------------|-------------------------|--------------------------|
|-------------------------|-------------------------|--------------------------|
|-------------------------|-------------------------|--------------------------|
|-7-7-7-7-7-7-------------|-------------------------|-6-6-6-6-6-6--------------|
|-------------------------|-8-8-8-7-7-7-------------|--------------------------|
|-------------5-5-5-5-5-5-|-------------4-4-4-4-4-4-|-------------4-4-4-4-4-4--|
|
| Gtr II
|-------------------------|-------------------------|--------------------------|
|-------------------------|-------------------------|--------------------------|
|-------------------------|-------------------------|--------------------------|
|-------------------------|-------------------------|--------------------------|
|-------------------------|-------------------------|--------------------------|
|-------------------------|-------------------------|--------------------------|


              G5     Bb5A5 N.C.
  Gtr I
              PM--------|
|------------------|-------------------|--------------------------|
|------------------|-------------------|--------------------------|
|------------------|-------------------|--------------------------|
|-5-5-5-5-5-5------|-------------------|-4-4-4-4-4-4--------------|
|-------------5----|-8--7--------------|--------------------------|
|-------------3----|-6--5--2-2-2-2-(2)-|-------------2-2-2-2-2-2--|
|
| Gtr II
|             PM--------|
|------------------|-------------------|--------------------------|
|------------------|-------------------|--------------------------|
|------------------|-------------------|--------------------------|
|------------------|-------------------|-4-4-4-4-4-4--------------|
|-------------5----|-8--7--------------|--------------------------|
|-------------3----|-6--5--2-2-2-2-(2)-|-------------2-2-2-2-2-2--|


                F5 F#5  EsuF5 N.C.
    Gtrs I, II
                PM---------|
||--------------------|-------------------|---------------------------||
||o-------------------|-------------------|--------------------------o||
||--------------------|-------------------|---------------------------||
||--3-3-3-3-3-3-------|-------------------|-4-4-4-4-4-4---------------||
||o-------------3--4--|-0--3--------------|--------------------------o||
||--------------1--2--|-0--1--2-2-2-2-2-2-|-------------2-2-2-2-2-2---||


 Verse
|-------------------------|-------------------------|-------------------------|
|-------------------------|-------------------------|-------------------------|
|-------------------------|-------------------------|-------------------------|
|-7-7-7-7-7-7-------------|-------------------------|-6-6-6-6-6-6-------------|
|-------------------------|-8-8-8-7-7-7-------------|-------------------------|
|-------------5-5-5-5-5-5-|-------------4-4-4-4-4-4-|-------------4-4-4-4-4-4-|


              G5     Bb5A5 N.C.
  Gtr I
              PM--------|
|------------------|-------------------|-------------------------|
|------------------|-------------------|-------------------------|
|------------------|-------------------|-------------------------|
|-5-5-5-5-5-5------|-------------------|-4-4-4-4-4-4-------------|
|-------------5----|-8--7--------------|-------------------------|
|-------------3----|-6--5--2-2-2-2-2-2-|-------------2-2-2-2-2-2-|
|
| Gtr II
|             PM--------|
|------------------|-------------------|-------------------------|
|------------------|-------------------|-------------------------|
|------------------|-------------------|-6-6-6-6-6-6-------------|
|-5-5-5-5-5-5------|-------------------|-------------------------|
|-------------5----|-8--7--4-4-4-4-4-4-|-------------4-4-4-4-4-4-|
|-------------3----|-6--5--------------|-------------------------|


                F5 F#5  E5 F5 N.C.
                PM---------|
||--------------------|-------------------|---------------------------||
||o-------------------|-------------------|--------------------------o||
||--------------------|-------------------|---------------------------||
||--3-3-3-3-3-3-------|-------------------|-4-4-4-4-4-4---------------||
||o-------------3--4--|-2--3--------------|--------------------------o||
||--------------1--2--|-0--1--2-2-2-2-2-2-|-------------2-2-2-2-2-2---||
|
|               PM---------|
||--------------------|-------------------|---------------------------||
||o-------------------|-------------------|--------------------------o||
||--5-5-5-5-5-5-------|-------------------|-6-6-6-6-6-6---------------||
||--------------------|-------------------|---------------------------||
||o-------------3--4--|-2--3--4-4-4-4-4-4-|-------------4-4-4-4-4-4--o||
||--------------1--2--|-0--1--------------|---------------------------||


  Faster Q=272
  Gtrs I, II
|-------------------------|-------------------------|-------------------------|
|-------------------------|-------------------------|-------------------------|
|-------------------------|-------------------------|-------------------------|
|-7-7-7-7-7-7-------------|-------------------------|-6-6-6-6-6-6-------------|
|-------------------------|-8-8-8-7-7-7-------------|-------------------------|
|-------------5-5-5-5-5-5-|-------------4-4-4-4-4-4-|-------------4-4-4-4-4-4-|


              G5     Bb5A5
              PM--------|
|------------------|-------------------|-------------------------|
|------------------|-------------------|-------------------------|
|------------------|-------------------|-------------------------|
|-5-5-5-5-5-5------|-------------------|-4-4-4-4-4-4-------------|
|-------------5----|-8--7--------------|-------------------------|
|-------------3----|-6--5--2-2-2-2-2-2-|-------------2-2-2-2-2-2-|


                F5 F#5  E5 F5 N.C.
                PM---------|
||--------------------|-------------------|---------------------------||
||o-------------------|-------------------|--------------------------o||
||--------------------|-------------------|---------------------------||
||--3-3-3-3-3-3-------|-------------------|-4-4-4-4-4-4---------------||
||o-------------3--4--|-2--3--------------|--------------------------o||
||--------------1--2--|-0--1--2-2-2-2-2-2-|-------------2-2-2-2-2-2---||


|-------------------------|-------------------------|-------------------------|
|-------------------------|-------------------------|-------------------------|
|-------------------------|-------------------------|-------------------------|
|-7-7-7-7-7-7-------------|-------------------------|-6-6-6-6-6-6-------------|
|-------------------------|-8-8-8-7-7-7-------------|-------------------------|
|-------------5-5-5-5-5-5-|-------------4-4-4-4-4-4-|-------------4-4-4-4-4-4-|


              G5     Bb5A5 N.C.
  Gtr I
              PM--------|
|------------------|-------------------|-------------------------|
|------------------|-------------------|-------------------------|
|------------------|-------------------|-------------------------|
|-5-5-5-5-5-5------|-------------------|-4-4-4-4-4-4-------------|
|-------------5----|-8--7--------------|-------------------------|
|-------------3----|-6--5--2-2-2-2-2-2-|-------------2-2-2-2-2-2-|
|
| Gtr II
|             PM--------|
|------------------|-------------------|-------------------------|
|------------------|-------------------|-------------------------|
|------------------|-------------------|-6-6-6-6-6-6-------------|
|-5-5-5-5-5-5------|-------------------|-------------------------|
|-------------5----|-8--7--4-4-4-4-4-4-|-------------4-4-4-4-4-4-|
|-------------3----|-6--5--------------|-------------------------|


              G5     Bb5A5 N.C.
              PM--------|
|------------------|-------------------|-------------------------|
|------------------|-------------------|-------------------------|
|------------------|-------------------|-------------------------|
|-3-3-3-3-3-3------|-------------------|-4-4-4-4-4-4-------------|
|-------------5----|-8--7--------------|-------------------------|
|-------------3----|-6--5--2-2-2-2-2-2-|-------------2-2-2-2-2-2-|
|
|             PM--------|
|------------------|-------------------|-------------------------|
|------------------|-------------------|-------------------------|
|-5-5-5-5-5-5------|-------------------|-6-6-6-6-6-6-------------|
|------------------|-------------------|-------------------------|
|-------------5----|-8--7--4-4-4-4-4-4-|-------------4-4-4-4-4-4-|
|-------------3----|-6--5--------------|-------------------------|


 Bridge 3
              G5     Bb5A5 N.C.
  Gtrs I, II
              PM--------|
|------------------|-------------------|
|------------------|-------------------|
|------------------|-------------------|
|-3-3-3-3-3-3------|-------------------|
|-------------5----|-8--7--------------|
|-------------3----|-6--5--1-1-1-1-1-1-|


                                        F5
                                        PM
|-------------------------|------------------|
|-------------------------|------------------|
|-------------------------|------------------|
|-3-3-3-3-3-3-------------|-2-2-2-2-2-2------|
|-------------------------|-------------3----|
|-------------1-1-1-1-1-1-|-------------1----|


    Slighty Slower Q=262
    Ab5G5 E5     N.C.                                  F5
    Gtrs I, II
    PM-|                                               PM
                                                             3x
||-------------|-------------------------|-------------------||
||o------------|-------------------------|------------------o||
||-------------|-------------------------|-------------------||
||-------------|-3-3-3-3-3-3-------------|-2-2-2-2-2-2-------||
||o-6--5--2----|-------------------------|-------------3----o||
||--4--3--0----|-------------1-1-1-1-1-1-|-------------1-----||


    Faster Q=270
    Ab5G5 E5                                                         F5
    Gtr I
    PM-|                                                             PM
                                                                           4x
||-------------|-------------------------|---------------------------------||
||o------------|-------------------------|--------------------------------o||
||-------------|-------------------------|---------------------------------||
||-------------|-3-3-3-3-3-3-------------|--2------2-2---2-------2-2-------||
||o-6--5--2----|-------------------------|---------------------------3----o||
||--4--3--0----|-------------1-1-1-1-1-1-|---------------------------1-----||
|
|   Gtr II
|   PM-|                                                 ~~~~~~~~~~  PM
|                                                                          4x
||-------------|-------------------------|---------------------------------||
||o------------|-------------------------|--------------------------------o||
||-------------|-5-5-5-5-5-5-------------|-[4]b5.5r====([4])b5.5r==========||
||-------------|-------------------------|---------------------------------||
||o-6--5--2----|-------------3-3-3-3-3-3-|---------------------------3----o||
||--4--3--0----|-------------------------|---------------------------1-----||


 Pre-Verse
                                Slower Q=205
  Ab5G5 N.C.          G5   Bbsus4  N.C.
                                  12/8
  Gtrs I, II                    Gtr I
  PM-|                PM                       PM--------------|
|-------------------|-----------||--------------------------------|
|-------------------|-----------||--------------------------------|
|-------------------|-----------||--------------------------------|
|-------3-3-3-3-3-3-|-----------||-5-5-5-5-5-5-2-3----------------|
|-6--5--------------|-5----6----||-------------2-3-5-4-5-6-5-6-7--|
|-4--3--------------|-3----6----||-----------------5-4-5-6-5-6-7--|


   Verse (8th note snare)
    N.C.
   12/8
    Gtrs I, II
                PM--------|   PM    PM    PM  PM------------|         PM
||------------------------------------|----------------------------------|
||o-----------------------------------|----------------------------------|
||------------------------------------|----------------------------------|
||--5-5-5-5-5-5-----------------6-5---|-5---4-----------------4-4-4-4----|
||o---------------------------------2-|----------------------------------|
||--------------3-4-5-3-3-4-4-4-------|---0---1-2-3-2-2-2-2-2---------2--|


              PM--------|   PM    PM    PM  PM      PM|
|-----------------------------------|--------------------------||
|-----------------------------------|-------------------------o||
|-----------------------------------|--------------------------||
|-5-5-5-5-5-5-----------------6-5---|-6---5---6-5-8-----8-8-9--||
|-----------------------------------|-------------------------o||
|-------------3-4-5-3-3-4-4-4-----7-|---0---0-------0-0--------||


   Chorus
    Moderately Q=131
   4/4
    Gtrs I, II
    PM--------------------------------------|
||--------------------------------------------|
||o-------------------------------------------|
||--------------------------------------------|
||--------------------------------------------|
||o-5-5-5-5-5-5-------------6-6-6-6-6-6-------|
||--------------3-3-3-3-3-3-------------3-4-3-|


    PM|   PM  PM--------------------|
|-------------------------------------|
|-------------------------------------|
|-------------------------------------|
|-------------------------------------|
|-5-----6---6-------------------------|
|---6-3---3---4-4-4-4-4-4-4-4-4-4-4-4-|


  PM--------------------------------------|     PM  PM--|   PM|  ~~
|-------------------------------------------|-------------------------||
|-------------------------------------------|------------------------o||
|-------------------------------------------|-------------------------||
|-------------5-5-5-5-5-5-------------------|-4---4-------6-----/7----||
|-------------------------4-4-4-4-4-4-------|---------------5--------o||
|-3-3-3-3-3-3-------------------------2-3-2-|---2---2-1-0-----4-------||


    Gtr I
    PM--------------------------------------|
||--------------------------------------------|
||o-------------------------------------------|
||--------------------------------------------|
||--------------------------------------------|
||o-5-5-5-5-5-5-------------6-6-6-6-6-6-------|
||--------------3-3-3-3-3-3-------------3-4-3-|
|
|   Gtr II
|   PM--------------------------------------|
||--------------------------------------------|
||o-------------------------------------------|
||--------------------------------------------|
||--------------------------------------------|
||o-8-8-8-8-8-8-------------9-9-9-9-9-9-------|
||--------------6-6-6-6-6-6-------------3-4-3-|


    PM|   PM  PM--------------------|
|---------------------------------------|
|---------------------------------------|
|---------------------------------------|
|---------------------------------------|
|-5-----6---6---------------------------|
|---6-3---3---4-4-4-4-4-4-4-4-4-4-4-4---|
|
|   PM|   PM  PM--------------------|
|---------------------------------------|
|---------------------------------------|
|---------------------------------------|
|---------------------------------------|
|-8-----9---9---------------------------|
|---9-6---6---7-7-7-7-7-7-7-7-7-7-7-7---|


  Gtr I
  PM--------------------------------------|     PM  PM--|         ~~~
|-------------------------------------------|--------------------------||
|-------------------------------------------|-------------------------o||
|-------------------------------------------|--------------------------||
|-------------5-5-5-5-5-5-------------------|-4---4-------6------/7----||
|-------------------------4-4-4-4-4-4-------|---------------5---------o||
|-3-3-3-3-3-3-------------------------2-3-2-|---2---2-1-0-----4--------||
|
| Gtr II
| PM--------------------------------------|     PM  PM--|   PM|   ~~~
|-------------------------------------------|--------------------------||
|-------------------------------------------|-------------------------o||
|-------------------------------------------|--------------------------||
|-------------8-8-8-8-8-8-------------------|-4---4-------9-----/10----||
|-------------------------7-7-7-7-7-7-------|---------------8---------o||
|-6-6-6-6-6-6-------------------------2-3-2-|---2---2-1-0-----7--------||


 Bridge 4
  Q=130
  F5F#5F5 N.C.        G5Ab5G5    F5F#5F5 N.C.
 4/4                            17/16
  Gtr I
          PM--------|                    PM--------|
|-----------------------------||--------------------------|
|-----------------------------||--------------------------|
|-----------------------------||--------------------------|
|-----------------------------||---------------------7----|
|-3-/4-\3-------------5-/6-\5-||-3-/4-\3---------6-7------|
|-1-/2-\1-0-1-0-2-0-1-3-/4-\3-||-1-/2-\1-0-1-0-5----------|
|
| Gtr II
|                                              PM--|
|-----------------------------||--------------------------|
|-----------------------------||--------------------------|
|-----------------------------||---------------------5----|
|-----------------------------||-----------------4-4------|
|-3-/4-\3---------------------||---------------3----------|
|-1-/2-\1---------------------||--------------------------|


    Q=123
    F5F#5F5 N.C.        G5Ab5G5
   4/4
    Gtr I
            PM--------|
||------------------------------|
||o-----------------------------|
||------------------------------|
||------------------------------|
||o-3-/4-\3-------------5-/6-\5-|
||--1-/2-\1-0-1-0-2-0-1-3-/4-\3-|
|
|   Gtr II
|           PM--------|
||------------------------------|
||o-----------------------------|
||------------------------------|
||------------------------------|
||o-3-/4-\3-------------5-/6-\5-|
||--1-/2-\1-0-1-0-2-0-1-3-/4-\3-|


 1.                            2.
  F5F#5F5 N.C.                  F5F#5F5 N.C.
          PM------------|               PM--------------|
|----------------------------||---------------------------|
|---------------------------o||---------------------------|
|----------------------------||---------------------------|
|-------------------------5--||-------------------7-6-5---|
|-3-/4-\3---------------4---o||-3-/4-\3---------6-------6-|
|-1-/2-\1-0-1-0-2-0-1-3------||-1-/2-\1-0-1-0-5-----------|
|
|         PM------------|               PM--------------|
|----------------------------||---------------------------|
|---------------------------o||---------------------------|
|----------------------------||-------------------5-4-3---|
|-------------------------8--||-----------------4-------4-|
|-3-/4-\3---------------7---o||-3-/4-\3-------3-----------|
|-1-/2-\1-0-1-0-2-0-1-6------||-1-/2-\1-0-1-0-------------|


    Q=125
    F5F#5F5 N.C.        G5Ab5G5
    Gtr I
            PM--------|
||------------------------------|
||o-----------------------------|
||------------------------------|
||------------------------------|
||o-3-/4-\3-------------5-/6-\5-|
||--1-/2-\1-0-1-0-2-0-1-3-/4-\3-|
|
|   Gtr II
|           PM--------|
||------------------------------|
||o-----------------------------|
||------------------------------|
||------------------------------|
||o-3-/4-\3-------------5-/6-\5-|
||--1-/2-\1-0-1-0-2-0-1-3-/4-\3-|


 1.                            2.
  F5F#5F5 N.C.                  F5F#5F5 N.C.
          PM------------|               PM--------|
|----------------------------||--------------------------|
|---------------------------o||--------------------------|
|----------------------------||--------------------------|
|-------------------------5--||---------------------7----|
|-3-/4-\3---------------4---o||-3-/4-\3---------6-7------|
|-1-/2-\1-0-1-0-2-0-1-3------||-1-/2-\1-0-1-0-5----------|
|
|         PM------------|               PM--------|
|----------------------------||--------------------------|
|---------------------------o||--------------------------|
|----------------------------||---------------------5----|
|-------------------------8--||-----------------4-4------|
|-3-/4-\3---------------7---o||-3-/4-\3-------3----------|
|-1-/2-\1-0-1-0-2-0-1-6------||-1-/2-\1-0-1-0------------|


    Q=120
    F5F#5F5 N.C.        G5Ab5G5
    Gtr I
            PM--------|
||------------------------------|
||o-----------------------------|
||------------------------------|
||------------------------------|
||o-3-/4-\3-------------5-/6-\5-|
||--1-/2-\1-0-1-0-2-0-1-3-/4-\3-|
|
|   Gtr II
|           PM--------|
||------------------------------|
||o-----------------------------|
||------------------------------|
||------------------------------|
||o-3-/4-\3-------------5-/6-\5-|
||--1-/2-\1-0-1-0-2-0-1-3-/4-\3-|


 1.                            2.
  F5F#5F5 N.C.                  F5F#5F5 N.C.
          PM------------|               PM--------------|
|----------------------------||----------------------------|
|---------------------------o||----------------------------|
|----------------------------||----------------------------|
|-------------------------5--||-------------------7-6-5----|
|-3-/4-\3---------------4---o||-3-/4-\3---------6-------6--|
|-1-/2-\1-0-1-0-2-0-1-3------||-1-/2-\1-0-1-0-5------------|
|
|         PM------------|               PM--------------|
|----------------------------||----------------------------|
|---------------------------o||----------------------------|
|----------------------------||-------------------5-4-3----|
|-------------------------8--||-----------------4-------4--|
|-3-/4-\3---------------7---o||-3-/4-\3-------3------------|
|-1-/2-\1-0-1-0-2-0-1-6------||-1-/2-\1-0-1-0--------------|


    Q=125
    F5F#5F5 N.C.        G5Ab5G5
    Gtr I
            PM--------|
||------------------------------|
||o-----------------------------|
||------------------------------|
||------------------------------|
||o-3-/4-\3-------------5-/6-\5-|
||--1-/2-\1-0-1-0-2-0-1-3-/4-\3-|
|
|   Gtr II
|           PM--------|
||------------------------------|
||o-----------------------------|
||------------------------------|
||------------------------------|
||o-3-/4-\3-------------5-/6-\5-|
||--1-/2-\1-0-1-0-2-0-1-3-/4-\3-|


 1.                            2.
  F5F#5F5 N.C.                  F5F#5F5 N.C.
          PM------------|               PM--------|
|----------------------------||--------------------------|
|---------------------------o||--------------------------|
|----------------------------||--------------------------|
|-------------------------5--||---------------------7----|
|-3-/4-\3---------------4---o||-3-/4-\3---------6-7------|
|-1-/2-\1-0-1-0-2-0-1-3------||-1-/2-\1-0-1-0-5----------|
|
|         PM------------|               PM--------|
|----------------------------||--------------------------|
|---------------------------o||--------------------------|
|----------------------------||---------------------5----|
|-------------------------8--||-----------------4-4------|
|-3-/4-\3---------------7---o||-3-/4-\3-------3----------|
|-1-/2-\1-0-1-0-2-0-1-6------||-1-/2-\1-0-1-0------------|


 Breakdown
  Q=125
  D5 G5     Db5F#5    N.C.
 2/4       3/4
  Gtr I
                      PM--------------------------------|
|-------||----------|-------------------------------------|
|-------||o---------|-------------------------------------|
|-------||----------|-------------------------------------|
|-7-----||--6-------|-------------------------------------|
|-5--5--||o-4--4----|-------------------------------------|
|----3--||-----2----|-1-1-1-1-1-1-1-1-1-1-1-1-1-1-1-1-1-1-|
|
| Gtr II
|                     PM--------------------------------|
|-------||----------|-------------------------------------|
|-------||o---------|-------------------------------------|
|-------||----------|-------------------------------------|
|-7-----||--6-------|-------------------------------------|
|-5--5--||o-4--4----|-------------------------------------|
|----3--||--4--2----|-1-1-1-1-1-1-1-1-1-1-1-1-1-1-1-1-1-1-|


        F#5C5/G Db5/AD5/A  Dm                Dbm
                          4/4
  Gtr I
                           PM--------------------|
|-------------|---------||--------------------------||
|-------------|---------||-------------------------o||
|-------------|---------||--------------------------||
|-3-2-1----5--|-6----7--||-3-3-3-3-3-3-3-3-3-2-2-2--||
|-------4--3--|-4----5--||-5-5-5-5-5-5-5-5-5-4-4-4-o||
|-------2-----|---------||--------------------------||
|
| Gtr II
|                          PM--------------------|
|-------------|---------||--------------------------||
|-------------|---------||-------------------------o||
|-------------|---------||--------------------------||
|-3-2-1----5--|-6----7--||-3-3-3-3-3-3-3-3-3-2-2-2--||
|-------4--3--|-4----5--||-5-5-5-5-5-5-5-5-5-4-4-4-o||
|-------2--3--|-4----5--||--------------------------||


   Verse
    Q=130
    Db5F#5    N.C.                                        F#5C5/G
   3/4
    Gtr I
              PM--------------------------------|
||----------|-------------------------------------|-------------|
||o---------|-------------------------------------|-------------|
||----------|-------------------------------------|-------------|
||--6-------|-------------------------------------|-3-2-1----5--|
||o-4--4----|-------------------------------------|-------4--3--|
||-----2----|-1-1-1-1-1-1-1-1-1-1-1-1-1-1-1-1-1-1-|-------2-----|
|
|   Gtr II
|             PM--------------------------------|
||----------|-------------------------------------|-------------|
||o---------|-------------------------------------|-------------|
||----------|-------------------------------------|-------------|
||--6-------|-------------------------------------|-3-2-1----5--|
||o-4--4----|-------------------------------------|-------4--3--|
||-----2----|-1-1-1-1-1-1-1-1-1-1-1-1-1-1-1-1-1-1-|-------2--3--|


            1.                          2.
  Db5/AD5/A  Dm                Dbm       Dm                Dbm
            4/4                         5/4
  Gtr I
             PM------------------------------------------------------|
|---------||--------------------------||-------------------------------|
|---------||-------------------------o||-------------------------------|
|---------||--------------------------||-------------------------------|
|-6----7--||-3-3-3-3-3-3-3-3-3-2-2-2--||-3-3-3-3-3-3-3-3-3-2-2-2-2-2-2-|
|-4----5--||-5-5-5-5-5-5-5-5-5-4-4-4-o||-5-5-5-5-5-5-5-5-5-4-4-4-4-4-4-|
|---------||--------------------------||-------------------------------|
|
| Gtr II
|            PM------------------------------------------------------|
|---------||--------------------------||-------------------------------|
|---------||-------------------------o||-------------------------------|
|---------||--------------------------||-------------------------------|
|-6----7--||-3-3-3-3-3-3-3-3-3-2-2-2--||-3-3-3-3-3-3-3-3-3-2-2-2-2-2-2-|
|-4----5--||-5-5-5-5-5-5-5-5-5-4-4-4-o||-5-5-5-5-5-5-5-5-5-4-4-4-4-4-4-|
|-4----5--||--------------------------||-------------------------------|


   Verse (8th note snare)
    Fast Death Metal Q=203
    $$
    N.C.
   12/8
    Gtrs I, II
                PM--------|   PM    PM    PM  PM------------|         PM
||------------------------------------|----------------------------------|
||o-----------------------------------|----------------------------------|
||------------------------------------|----------------------------------|
||--5-5-5-5-5-5-----------------6-5---|-5---4-----------------4-4-4-4----|
||o---------------------------------2-|----------------------------------|
||--------------3-4-5-3-3-4-4-4-------|---0---1-2-3-2-2-2-2-2---------2--|


                                                To Dbl. Coda
              PM--------|   PM    PM    PM  PM      PM|
|-----------------------------------|--------------------------||
|-----------------------------------|-------------------------o||
|-----------------------------------|--------------------------||
|-5-5-5-5-5-5-----------------6-5---|-6---5---6-5-8-----8-8-9--||
|-----------------------------------|-------------------------o||
|-------------3-4-5-3-3-4-4-4-----7-|---0---0-------0-0--------||


   Chorus
    Moderately Q=132
   4/4
    Gtr I
    PM--------------------------------------|
||--------------------------------------------|
||o-------------------------------------------|
||--------------------------------------------|
||--------------------------------------------|
||o-5-5-5-5-5-5-------------6-6-6-6-6-6-------|
||--------------3-3-3-3-3-3-------------3-4-3-|
|
|   Gtr II
|   PM--------------------------------------|
||--------------------------------------------|
||o-------------------------------------------|
||--------------------------------------------|
||--------------------------------------------|
||o-8-8-8-8-8-8-------------9-9-9-9-9-9-------|
||--------------6-6-6-6-6-6-------------3-4-3-|


    PM|   PM  PM--------------------|
|-------------------------------------|
|-------------------------------------|
|-------------------------------------|
|-------------------------------------|
|-5-----6---6-------------------------|
|---6-3---3---4-4-4-4-4-4-4-4-4-4-4-4-|
|
|   PM|   PM  PM--------------------|
|-------------------------------------|
|-------------------------------------|
|-------------------------------------|
|-------------------------------------|
|-8-----9---9-------------------------|
|---9-6---6---7-7-7-7-7-7-7-7-7-7-7-7-|


                                             D.S.S. al Dbl. Coda
  Gtr I
  PM--------------------------------------|     PM  PM--|         ~~~
|-------------------------------------------|--------------------------||
|-------------------------------------------|-------------------------o||
|-------------------------------------------|--------------------------||
|-------------5-5-5-5-5-5-------------------|-4---4-------6------/7----||
|-------------------------4-4-4-4-4-4-------|---------------5---------o||
|-3-3-3-3-3-3-------------------------2-3-2-|---2---2-1-0-----4--------||
|
| Gtr II
| PM--------------------------------------|     PM  PM--|   PM|   ~~~
|-------------------------------------------|--------------------------||
|-------------------------------------------|-------------------------o||
|-------------------------------------------|--------------------------||
|-------------8-8-8-8-8-8-------------------|-4---4-------9-----/10----||
|-------------------------7-7-7-7-7-7-------|---------------8---------o||
|-6-6-6-6-6-6-------------------------2-3-2-|---2---2-1-0-----7--------||


 Drum Fill
  Q=203
  &&
                    G5
 12/8              3/4
  Gtrs I, II
|----------------||------------*|
|----------------||------------*|
|----------------||------------*|
|----------8-8-9-||------------*|
|----------------||-5--(5)\----*|
|----------------||-3--(3)\----*|

  Visit MetalTabs.com for more metal tablature

bottom separator

Contact Us | Privacy Policy | Disclaimer | Legal Notice
Copyright © 2001-2014 MetalTabs.com. All Rights Reserved.