top separator

Home

Forum

What's New

Submit a Tab

FAQ

Links

Contact Us

Link to Us

MetalTabs.com logo

Bands

0-9

A

B

C

D

E

F

G

H

I

J

K

L

M

N

O

P

Q

R

S

T

U

V

W

X

Y

Z

Search

What

Where
 

Darkthrone - "In The Shadows Of The Horns" Guitar Tab

Plain Text Version
More Darkthrone Tabs

Hits: 11077
Rated: 4.20 out of 5 (10 votes)
Updated: 2004-09-03 14:39:11

 

By:

Jacob

sendpm.gif

email.gif

Important note
This tab is available online because we obtained explicit permission from Darkthrone or their label.


#----------------------------------PLEASE NOTE---------------------------------#
#This file is the author's own work and represents their interpretation of the #
#song. You may only use this file for private study, scholarship, or research. #
#Unless specified otherwise, this is NOT an official tab from the band members.#
#------------------------------------------------------------------------------#

  Visit MetalTabs.com for more metal tablature
  
Band:  Darkthrone
Album:  A Blaze In The Northern Sky
Song:  In The Shadows Of The Horns

Transcribed By: Jacob
Email:          Jacobhuff@nc.rr.com



E||------|-----------------------------|------------------------------|
B||------|-----------------------------|------------------------------|
G||------|-----------------------------|------------------------------|
D||------|--7--6-----------------------|------------------------------|
A||------|--5--4----5--5-5-5-5-5-5-5-5-|--5-5-5-5-5-5-5-5-5-5-5-5-5-5-|
E||------|----------3--3-3-3-3-3-3-3-3-|--3-3-3-3-3-3-3-3-3-3-3-3-3-3-|



-----------------------------|------------------------------|
-----------------------------|------------------------------|
-----------------------------|------------------------------|
--7--6-----------------------|------------------------------|
--5--4----5--5-5-5-5-5-5-5-5-|--5-5-5-5-5-5-5-5-5-5-5-5-5-5-|
----------3--3-3-3-3-3-3-3-3-|--3-3-3-3-3-3-3-3-3-3-3-3-3-3-|



-------------------------|--------------------------|-------------------------|
-------------------------|--------------------------|-------------------------|
-------------------------|--------------------------|-------------------------|
-------------------------|--------------------------|-------------------------|
--3--4--3--2----2--2--2--|--2--2--2--2--2--2--2--2--|--3--4--3--2----2--2--2--|
--1--2--1--0----0--0--0--|--0--0--0--0--0--0--0--0--|--1--2--1--0----0--0--0--|



--------------------------|-------------------------|--------------------------|
--------------------------|-------------------------|--------------------------|
--------------------------|-------------------------|--------------------------|
--------------------------|--7--6-------------------|--------------------------|
--2--2--2--2--2--2--2--2--|--5--4----5--5--5--5--5--|--5--5--5--5--5--5--5--5--|
--0--0--0--0--0--0--0--0--|----------3--3--3--3--3--|--3--3--3--3--3--3--3--3--|



-------------------------|--------------------------|-------------------------|
-------------------------|--------------------------|-------------------------|
-------------------------|--------------------------|-------------------------|
--7--6-------------------|--------------------------|-------------------------|
--5--4----5--5--5--5--5--|--5--5--5--5--5--5--5--5--|--3--4--3--2----2--2--2--|
----------3--3--3--3--3--|--3--3--3--3--3--3--3--3--|--1--2--1--0----0--0--0--|



--------------------------|----------------------|------------------|
--------------------------|----------------------|------------------|
--------------------------|----------------------|------------------|
--------------------------|----------------------|------------------|
--2--2--2--2--2--2--2--2--|--3--4--3--2----------|------------------|
--0--0--0--0--0--0--0--0--|--1--2--1--0----------|------------------|



-------------------|-------------------||--------------------------|
-------------------|--4/---------------||--------------------------|
--4----------------|--4----------------||*-------------------------|
--4----------------|-------------------||*--7--6-------------------|
--2b---------------|-------------------||---5--4----5--5--5--5--5--|
-------------------|-------------------||-----------3--3--3--3--3--|



--------------------------|-------------------------|--------------------------|
--------------------------|-------------------------|--------------------------|
--------------------------|-------------------------|--------------------------|
--------------------------|--7--6-------------------|--------------------------|
--5--5--5--5--5--5--5--5--|--5--4----5--5--5--5--5--|--5--5--5--5--5--5--5--5--|
--3--3--3--3--3--3--3--3--|----------3--3--3--3--3--|--3--3--3--3--3--3--3--3--|



-------------------------|--------------------------|----------------------|
-------------------------|--------------------------|----------------------|
-------------------------|--------------------------|----------------------|
-------------------------|--------------------------|----------------------|
--3--4--3--2----2--2--2--|--2--2--2--2--2--2--2--2--|--3--4--3--2----------|
--1--2--1--0----0--0--0--|--0--0--0--0--0--0--0--0--|--1--2--1--0----------|



------|----------------------|----------------------|----------------------|
------|----------------------|----------------------|----------------------|
------|----------------------|----------------------|----------------------|
------|----------------------|--3--3-3--3-3--3-3--3-|----------------------|
------|--4--4-4--4-4--4-4--4-|--1--1-1--1-1--1-1--1-|--4--4-4--4-4--4-4--4-|
------|--2--2-2--2-2--2-2--2-|----------------------|--2--2-2--2-2--2-2--2-|



----------------------|----------------------|----------------------|
----------------------|----------------------|----------------------|
----------------------|----------------------|----------------------|
--3--3-3--3-3--3-3--3-|----------------------|--3--3-3--3-3--3-3--3-|
--1--1-1--1-1--1-1--1-|--4--4-4--4-4--4-4--4-|--1--1-1--1-1--1-1--1-|
----------------------|--2--2-2--2-2--2-2--2-|----------------------|



----------------------|----------------------|----------------------|
----------------------|----------------------|----------------------|
----------------------|----------------------|----------------------|
----------------------|--3--3-3--3-3--3-3--3-|----------------------|
--4--4-4--4-4--4-4--4-|--1--1-1--1-1--1-1--1-|--4--4-4--4-4--4-4--4-|
--2--2-2--2-2--2-2--2-|----------------------|--2--2-2--2-2--2-2--2-|



----------------------|----------------------|----------------------|
----------------------|----------------------|----------------------|
----------------------|----------------------|----------------------|
--3--3-3--3-3--3-3--3-|----------------------|--3--3-3--3-3--3-3--3-|
--1--1-1--1-1--1-1--1-|--4--4-4--4-4--4-4--4-|--1--1-1--1-1--1-1--1-|
----------------------|--2--2-2--2-2--2-2--2-|----------------------|



----------------------|----------------------|----------------------|
----------------------|----------------------|----------------------|
----------------------|----------------------|----------------------|
----------------------|--3--3-3--3-3--3-3--3-|----------------------|
--4--4-4--4-4--4-4--4-|--1--1-1--1-1--1-1--1-|--4--4-4--4-4--4-4--4-|
--2--2-2--2-2--2-2--2-|----------------------|--2--2-2--2-2--2-2--2-|



----------------------|--------------------------|--------------------------|
----------------------|--------------------------|--------------------------|
----------------------|--------------------------|--------------------------|
--3--3-3--3-3--3-3--3-|--7-----------------------|--------------------------|
--1--1-1--1-1--1-1--1-|--7-7-7-7-7-7-7-7-7-7-7-7-|--6-7-7-7-7-7-7-7-7-7-7-7-|
----------------------|--5-5-5-5-5-5-5-5-5-5-5-5-|--4-5-5-5-5-5-5-5-5-5-5-5-|



--------------------------|--------------------|--------------------------|
--------------------------|--------------------|--------------------------|
--------------------------|--------------------|--------------------------|
--------------------------|--6--5--5--5--4--4--|--7-----------------------|
--6-6-6-6-6-6-6-6-6-6-6-6-|--4--3--3--3--2--2--|--7-7-7-7-7-7-7-7-7-7-7-7-|
--4-4-4-4-4-4-4-4-4-4-4-4-|--------------------|--5-5-5-5-5-5-5-5-5-5-5-5-|



--------------------------|--------------------------|--------------------|
--------------------------|--------------------------|--------------------|
--------------------------|--------------------------|--------------------|
--------------------------|--------------------------|--6--5--5--5--4--4--|
--6-7-7-7-7-7-7-7-7-7-7-7-|--6-6-6-6-6-6-6-6-6-6-6-6-|--4--3--3--3--2--2--|
--4-5-5-5-5-5-5-5-5-5-5-5-|--4-4-4-4-4-4-4-4-4-4-4-4-|--------------------|



--------------------------|--------------------------|
--------------------------|--------------------------|
--------------------------|--------------------------|
--7-----------------------|--------------------------|
--7-7-7-7-7-7-7-7-7-7-7-7-|--6-7-7-7-7-7-7-7-7-7-7-7-|
--5-5-5-5-5-5-5-5-5-5-5-5-|--4-5-5-5-5-5-5-5-5-5-5-5-|



--------------------------|---------------------||-------------------------|
--------------------------|---------------------||-------------------------|
--------------------------|--------------------*||-------------------------|
--------------------------|--6--5--5--5--4--4--*||--7--6-------------------|
--6-6-6-6-6-6-6-6-6-6-6-6-|--4--3--3--3--2--2---||--5--4----5--5--5--5--5--|
--4-4-4-4-4-4-4-4-4-4-4-4-|---------------------||----------3--3--3--3--3--|



--------------------------|-------------------------|--------------------------|
--------------------------|-------------------------|--------------------------|
--------------------------|-------------------------|--------------------------|
--------------------------|--7--6-------------------|--------------------------|
--5--5--5--5--5--5--5--5--|--5--4----5--5--5--5--5--|--5--5--5--5--5--5--5--5--|
--3--3--3--3--3--3--3--3--|----------3--3--3--3--3--|--3--3--3--3--3--3--3--3--|



-------------------------|--------------------------|----------------------|
-------------------------|--------------------------|----------------------|
-------------------------|--------------------------|----------------------|
-------------------------|--------------------------|----------------------|
--3--4--3--2----2--2--2--|--2--2--2--2--2--2--2--2--|--3--4--3--2----------|
--1--2--1--0----0--0--0--|--0--0--0--0--0--0--0--0--|--1--2--1--0----------|



------------------|------------------||----------------------------|
------------------|------------------||----------------------------|
------------------|------------------||*---------------------------|
------------------|------------------||*--7--------6---------------|
------------------|------------------||---5--6--6--4--5--5--3--3-3-|
------------------|------------------||------4--4-----3--3--1--1-1-|



--------------------------|---------------------------|
--------------------------|---------------------------|
--------------------------|---------------------------|
--------------------------|--7--------6---------------|
--3-3-3-3-3-3-3-3-3-3-3-3-|--5--6--6--4--5--5--3--3-3-|
--1-1-1-1-1-1-1-1-1-1-1-1-|-----4--4-----3--3--1--1-1-|



--------------------------|---------------------------|
--------------------------|---------------------------|
--------------------------|---------------------------|
--------------------------|--7--------6---------------|
--3-3-3-3-3-3-3-3-3-3-3-3-|--5--6--6--4--5--5--3--3-3-|
--1-1-1-1-1-1-1-1-1-1-1-1-|-----4--4-----3--3--1--1-1-|



--------------------------|---------------------------|
--------------------------|---------------------------|
--------------------------|---------------------------|
--------------------------|--7--------6---------------|
--3-3-3-3-3-3-3-3-3-3-3-3-|--5--6--6--4--5--5--3--3-3-|
--1-1-1-1-1-1-1-1-1-1-1-1-|-----4--4-----3--3--1--1-1-|



---------------------------||--------------------------------------|
---------------------------||--------------------------------------|
--------------------------*||--------------------------------------|
--------------------------*||--9-9-9-9-9-9-9-9-10-10-10-10-7-7-7-7-|
--3-3-3-3-3-3-3-3-3-3-3-3--||--7-7-7-7-7-7-7-7-8--8--8--8--8-8-8-8-|
--1-1-1-1-1-1-1-1-1-1-1-1--||--------------------------------------|



----------------------------------------|--------------------------------------|
----------------------------------------|--------------------------------------|
----------------------------------------|--------------------------------------|
--9-9-9-9-9-9-9-9-10-10-10-10-7-7-10-10-|--9-9-9-9-9-9-9-9-10-10-10-10-7-7-7-7-|
--7-7-7-7-7-7-7-7-8--8--8--8--5-5-8--8--|--7-7-7-7-7-7-7-7-8--8--8--8--8-8-8-8-|
----------------------------------------|--------------------------------------|



----------------------------------------|--------------------------------------|
----------------------------------------|--------------------------------------|
----------------------------------------|--------------------------------------|
--9-9-9-9-9-9-9-9-10-10-10-10-7-7-10-10-|--9-9-9-9-9-9-9-9-10-10-10-10-7-7-7-7-|
--7-7-7-7-7-7-7-7-8--8--8--8--5-5-8--8--|--7-7-7-7-7-7-7-7-8--8--8--8--8-8-8-8-|
----------------------------------------|--------------------------------------|



----------------------------------------|--------------------------------------|
----------------------------------------|--------------------------------------|
----------------------------------------|--------------------------------------|
--9-9-9-9-9-9-9-9-10-10-10-10-7-7-10-10-|--9-9-9-9-9-9-9-9-10-10-10-10-7-7-7-7-|
--7-7-7-7-7-7-7-7-8--8--8--8--5-5-8--8--|--7-7-7-7-7-7-7-7-8--8--8--8--8-8-8-8-|
----------------------------------------|--------------------------------------|



----------------------------------------|---------------------------|
----------------------------------------|---------------------------|
----------------------------------------|---------------------------|
--9-9-9-9-9-9-9-9-10-10-10-10-7-7-10-10-|--7--------6---------------|
--7-7-7-7-7-7-7-7-8--8--8--8--5-5-8--8--|--5--6--6--4--5--5--3--3-3-|
----------------------------------------|-----4--4-----3--3--1--1-1-|



--------------------------||----------------------------|
--------------------------||----------------------------|
--------------------------||*---------------------------|
--------------------------||*--7--------6---------------|
--3-3-3-3-3-3-3-3-3-3-3-3-||---5--6--6--4--5--5--3--3-3-|
--1-1-1-1-1-1-1-1-1-1-1-1-||------4--4-----3--3--1--1-1-|



--------------------------|---------------------------|
--------------------------|---------------------------|
--------------------------|---------------------------|
--------------------------|--7--------6---------------|
--3-3-3-3-3-3-3-3-3-3-3-3-|--5--6--6--4--5--5--3--3-3-|
--1-1-1-1-1-1-1-1-1-1-1-1-|-----4--4-----3--3--1--1-1-|


                           7x
---------------------------||--------------------------------------|
---------------------------||--------------------------------------|
--------------------------*||--------------------------------------|
--------------------------*||--9-9-9-9-9-9-9-9-10-10-10-10-7-7-7-7-|
--3-3-3-3-3-3-3-3-3-3-3-3--||--7-7-7-7-7-7-7-7-8--8--8--8--8-8-8-8-|
--1-1-1-1-1-1-1-1-1-1-1-1--||--------------------------------------|



----------------------------------------|--------------------------------------|
----------------------------------------|--------------------------------------|
----------------------------------------|--------------------------------------|
--9-9-9-9-9-9-9-9-10-10-10-10-7-7-10-10-|--9-9-9-9-9-9-9-9-10-10-10-10-7-7-7-7-|
--7-7-7-7-7-7-7-7-8--8--8--8--5-5-8--8--|--7-7-7-7-7-7-7-7-8--8--8--8--8-8-8-8-|
----------------------------------------|--------------------------------------|



----------------------------------------|--------------------------------------|
----------------------------------------|--------------------------------------|
----------------------------------------|--------------------------------------|
--9-9-9-9-9-9-9-9-10-10-10-10-7-7-10-10-|--9-9-9-9-9-9-9-9-10-10-10-10-7-7-7-7-|
--7-7-7-7-7-7-7-7-8--8--8--8--5-5-8--8--|--7-7-7-7-7-7-7-7-8--8--8--8--8-8-8-8-|
----------------------------------------|--------------------------------------|



----------------------------------------|--------------------------------------|
----------------------------------------|--------------------------------------|
----------------------------------------|--------------------------------------|
--9-9-9-9-9-9-9-9-10-10-10-10-7-7-10-10-|--9-9-9-9-9-9-9-9-10-10-10-10-7-7-7-7-|
--7-7-7-7-7-7-7-7-8--8--8--8--5-5-8--8--|--7-7-7-7-7-7-7-7-8--8--8--8--8-8-8-8-|
----------------------------------------|--------------------------------------|



----------------------------------------|-------------------|
----------------------------------------|-------------------|
----------------------------------------|-------------------|
--9-9-9-9-9-9-9-9-10-10-10-10-7-7-10-10-|--9----------------|
--7-7-7-7-7-7-7-7-8--8--8--8--5-5-8--8--|--7----------------|
----------------------------------------|-------------------|



------------------||
------------------||
------------------||
------------------||
------------------||
------------------||

  Visit MetalTabs.com for more metal tablature

bottom separator

Contact Us | Privacy Policy | Disclaimer | Legal Notice
Copyright © 2001-2014 MetalTabs.com. All Rights Reserved.