top separator

Home

Forum

What's New

Submit a Tab

FAQ

Links

Contact Us

Link to Us

MuSpy.com

MetalTabs.com logo

Bands

0-9

A

B

C

D

E

F

G

H

I

J

K

L

M

N

O

P

Q

R

S

T

U

V

W

X

Y

Z

Search

What

Where
 

Bloodbath - "The Soulcollector" Guitar Tab

Plain Text Version
More Bloodbath Tabs

Hits: 3877
Rated: 4.00 out of 5 (6 votes)
Updated: 2004-08-30 15:07:00

 

By:

xmoonshieldx

sendpm.gif

email.gif

Important note
This tab is available online because we obtained explicit permission from Bloodbath or their label.


#----------------------------------PLEASE NOTE---------------------------------#
#This file is the author's own work and represents their interpretation of the #
#song. You may only use this file for private study, scholarship, or research. #
#Unless specified otherwise, this is NOT an official tab from the band members.#
#------------------------------------------------------------------------------#

  Visit MetalTabs.com for more metal tablature
  
Band: Bloodbath
Album: Resurrection Through Carnage
Song: The Soulcollector
Copyright (c) Century Media 2002

Transcribed By: xmoonshieldx

.  - palm mute           /  - slide up to
\  - slide down to       ~  - vibrato
h  - hammer on           b  - Bend
p  - pull off            Suffixes for bend
t  - tap                 f  - full bend    h - half bend
ph - pinched harmonic    q  - quarter bend t - tap bend
*  - see comment         ^  - Hold bend    r release bend
x  - Stuccatto           ~  - vibrato bend
,  - slight palm mute    () - ghost note, sustained note
"  - tremolo note        <> - Trill


Tunning: B, E, A, D, F#, B,


|--------------------------------|------------------------------------|
|-12-8-8-12-12-8-8-11-11-7-7-4-4-|-12-8-8-12-12-8-8-11-11-7-7-4-4-5-4-|
|--------------------------------|------------------------------------|
|--------------------------------|------------------------------------|
|--------------------------------|------------------------------------|
|--------------------------------|------------------------------------|

|--------------------------------|--------------------|
|-12-8-8-12-12-8-8-11-11-7-7-4-4-|-11-7-7-7---8-7-----|
|--------------------------------|--------------------|
|--------------------------------|--------------------|
|--------------------------------|--------------------|
|--------------------------------|--------------------|



|---------------------------|
|---------------------------|
|---------------------------|
|-9----5--8-----------------|
|-7----3--6---------7p6-7p6-|
|-7----3--6---0-5-6---------|



|-----------------------|-------|
|-----------------------|-------|
|-----------------------|3 times|
|-------3-4-------4-3---|-------|
|-2-x-x-1-2-5-x-x-2-1-3-|-------|
|-0-x-x-----3-x-x-----1-|-------|

|-----------------------------------------------|
|-----------------------------------------------|
|-----------------------------------------------|
|-------3-4-------------------------------------|
|-2-x-x-1-2-5----------------------7-7---7-7----|
|-0-x-x-----3--0-3-3-4-1-1-3-4---7-----7-----7--|


speed pick
|-----------------------|-------|---------------------------|
|-----------------------|-------|---------------------------|
|-----------------------|3 times|---------------------------|
|-3--2-3-2--------------|-------|3--2-3-2----------4--3-----|
|-----------------2-1---|-------|------------2--5--2--1--3--|
|----------0--2-3-----3-|-------|---------0--0--3--------1--|


speed pick
|-----------------------|-------|----------------------|
|-----------------------|-------|----------------------|
|-----------------------|3 times|----------------------|
|-5--4-5-4--------4-3---|-------|-5--4-5-4-------4-3---|
|----------2--4-5-----3-|-------|----------2-3-4-2-1-3-|
|-----------------------|-------|------------1-2-----1-|



|-------------------|-------------------------|
|-------------------|-----------------nh-4----|
|-------------------|-----------------ph-5----|
|-5-4---4-3---------|-5-4---4-3---------------|
|-3-2-x-2-1-4-3-2-2-|-3-2-x-2-1-4-3---2--2-2--|
|-----x-----2-1-0-0-|-----x-----2-1---0--0-0--|



|-----------------------------------------|
|-----------------------------------------|
|-----------------------------------------|
|-----------------------------------------|
|-2--2--2--2--2--2-2-----------6----3-6-5-|
|-0--0--0--0--0--0-0-5/8-8-5-8---8--1-4-3-|



|-15-12----12------------------------------------|
|-------12----12-11------------------------------|
|------------------------------------------------|
|-------------------14-14--tr(14)13--------------|
|-----------------------------------15-14-15-14--|
|------------------------------------------------|



|-------------------|
|-------------------|
|-------------------|
|-5-4---4-3---------|
|-3-2---2-1-4-3-2-2-|
|-----3-----2-1-0-0-|

END

  Visit MetalTabs.com for more metal tablature

bottom separator

Contact Us | Privacy Policy | Disclaimer | Legal Notice
Copyright © 2001-2014 MetalTabs.com. All Rights Reserved.