top separator

Home

Forum

What's New

Submit a Tab

FAQ

Links

Contact Us

Link to Us

MetalTabs.com logo

Bands

0-9

A

B

C

D

E

F

G

H

I

J

K

L

M

N

O

P

Q

R

S

T

U

V

W

X

Y

Z

Search

What

Where
 

Exhumed - "Slaughtercult" Guitar Tab

Plain Text Version
More Exhumed Tabs

Hits: 4469
Updated: 2004-08-30 15:05:09

 

By:

Father Death

sendpm.gif

email.gif

Important note
This tab is available online because we obtained explicit permission from Exhumed or their label.


#----------------------------------PLEASE NOTE---------------------------------#
#This file is the author's own work and represents their interpretation of the #
#song. You may only use this file for private study, scholarship, or research. #
#Unless specified otherwise, this is NOT an official tab from the band members.#
#------------------------------------------------------------------------------#

  Visit MetalTabs.com for more metal tablature
  
Band:   EXHUMED
Album:  Slaughtercult
Song:   Slaughtercult

Transcribed by: Chris Humeniuk
Email:  father_death_666@hotmail.com

Tuning: 2.5 steps down (B)

Keys:
 x\\ - pick scrape
 ___ - palm mute
 / \ - slide
  x  - mute


INTRO:

|-----------------------------------------------------------------------|
|-----------------------------------------------------------------------|
|-----------------------------------------------------------------------|
|-6---5-3---2------6---5-3--3-2------6---5-3---2------6---5-3--3-2-x\\--|
|-6---5-3---2------6---5-3--3-2------6---5-3---2------6---5-3--3-2-x\\--|
|-4---3-1---0------4---3-1--1-0------4---3-1---0------4---3-1--1-0------|


RIFF A:

|--------------------------|     |--------------|
|--------------------------|     |--------------|
|--------------------------|     |--------------|
|-6---5-3--3-2-2--2-2-2-2--|     |-6---5-3--3-2-|
|-6---5-3--3-2-2--2-2-2-2--|     |-6---5-3--3-2-|
|-4---3-1--1-0-0--0-0-0-0--| 3x  |-4---3-1--1-0-|


VERSE:

|-----------------------------------------------------
|-----------------------------------------------------
|-----------------------------------------------------
|-4------4/8-7-4------4/5-5-4------4/8-7-4------4/5-2-
|-2-0000-2/6-5-2-0000-2/3-5-2-0000-2/6-5-2-0000-2/3-0-
|-------------------------3---------------------------
    ____         ____         ____         ____

 -----------------------------------------------------|
 -----------------------------------------------------|
 -----------------------------------------------------|
 -4------4/8-7-4------4/5-5-4------4/8-7-5------5/9-8-|
 -2-0000-2/6-5-2-0000-2/3-5-2-0000-2/6-5-5------5/9-8-|
 -------------------------3--------------3-0000-3/7-6-|
    ____         ____         ____         ____


CHORUS:

|-------------|
|-------------|
|-------------|
|-4-4/5-5-5/6-|
|-2-2/3-5-5/6-|
|-------3-3/4-| 8x


VERSE


RIFF C: (under solo last 4x)

|---------------------------------|
|---------------------------------|
|---------------------------------|
|-4------4/8\7/8--4------4/5\4/5--|
|-2-0000-2/6\5/6--2-0000-2/3\2/3--|
|---------------------------------| 6x


CHORUS


OUTRO:

|-----------------------------------------------------------------------------|
|-----------------------------------------------------------------------------|
|----------------------------------------------------------------4------------|
|-6---5-3---2------6---5-3--3-2------6---5-3---2------6---5-3--3-x------------|
|-6---5-3---2------6---5-3--3-2------6---5-3---2------6---5-3--3-2------------|
|-4---3-1---0------4---3-1--1-0------4---3-1---0------4---3-1--1-0------------|

  Visit MetalTabs.com for more metal tablature

bottom separator

Contact Us | Privacy Policy | Disclaimer | Legal Notice
Copyright © 2001-2014 MetalTabs.com. All Rights Reserved.