top separator

Home

Forum

What's New

Submit a Tab

FAQ

Links

Contact Us

Link to Us

MetalTabs.com logo

Bands

0-9

A

B

C

D

E

F

G

H

I

J

K

L

M

N

O

P

Q

R

S

T

U

V

W

X

Y

Z

Search

What

Where
 

Suffocation - "Marital Decimation" Guitar Tab

Plain Text Version
More Suffocation Tabs

Hits: 3865
Rated: 3.29 out of 5 (7 votes)
Updated: 2004-08-25 16:07:47

 

By:

Chris Rezendes

sendpm.gif

email.gif

Important note
This tab is available online because we obtained explicit permission from Suffocation or their label.


#----------------------------------PLEASE NOTE---------------------------------#
#This file is the author's own work and represents their interpretation of the #
#song. You may only use this file for private study, scholarship, or research. #
#Unless specified otherwise, this is NOT an official tab from the band members.#
#------------------------------------------------------------------------------#

  Visit MetalTabs.com for more metal tablature
  
=============================================================================
Song: Marital Decimation
Artist: Suffocation
Album: Breeding the Spawn (1993, Roadrunner)

Tabbed by Chris Rezendes (dudemcrude@yahoo.com)
Date started tab: 1/28/04
Date finished tab: 8/16/04

Tuning: Db/C# (one and one half steps down)
Copy: First

Notation Key
~: vibrato
^: bend
.: palm mute
r: release
t: trill
p: pull-off
h: hammer-on
x: ghost note
/: slide up
\: slide down

Comments: This tab took me a while, so I hope you like it.  I'm planning on
doing a massive update of my older work sometime in the next couple of
months, so be on the lookout for that. I'm going to start a couple more tabs
in Db, and when that's done, I'm tuning back up to Eb and going through all
my old stuff.  If you see something wrong with this tab, point it out to me
so everybody can have a nicer tab, I'd appreciate it.  Later.
=============================================================================

Intro x1
e|-------------------|
B|-------------------|
G|-------------------|
D|--2-3-4-3-4-5-6-6--|
A|--2-3-4-3-4-5-6-6--|
E|--0-1-2-1-2-3-4-4--|
              . . .

Riff 1 x1
e|-------------------|---------------|-------------------|----------------|
B|-------------------|---------------|-------------------|----------------|
G|-------------------|---------------|-------------------|----------------|
D|-------------------|--4-3----------|-------------------|-----------8-7--|
A|-------------------|--2-1-----4-3--|-------------------|--9-8-8--9-6-5--|
E|--2-0-1-0-4-5-4-0--|------0-0-2-1--|--2-0-1-0-4-0-3-0--|--7-6-6--7------|
    . . . . . . . .                     . . . . . . . .

e|-------------------|---------------|
B|-------------------|---------------|
G|-------------------|---------------|
D|-------------------|--4-3----------|
A|-------------------|--2-1-----4-3--|
E|--2-0-1-0-4-5-4-0--|------0-0-2-1--|
    . . . . . . . .

e|-------------------|-------------------|
B|-------------------|-------------------|
G|-------------------|-------------------|
D|-------------------|--------1-0--------|
A|-------------------|-------------------|
E|--2-0-1-0-4-0-3-0--|--2-0-1-----2-3-0--|
    . . . . . . . .     . . . . . . . .

e|-------------------|---------------|-------------------|----------------|
B|-------------------|---------------|-------------------|----------------|
G|-------------------|---------------|-------------------|----------------|
D|-------------------|--4-3----------|-------------------|-----------8-7--|
A|-------------------|--2-1-----4-3--|-------------------|--9-8-8--9-6-5--|
E|--2-0-1-0-4-5-4-0--|------0-0-2-1--|--2-0-1-0-4-0-3-0--|--7-6-6--7------|
    . . . . . . . .                     . . . . . . . .

e|-------------------|---------------|-------------------|
B|-------------------|---------------|-------------------|
G|-------------------|---------------|-------------------|
D|-------------------|--4-3----------|-------------------|
A|-------------------|--2-1-----4-3--|-------------------|
E|--2-0-1-0-4-5-4-0--|------0-0-2-1--|--2-0-1-0-4-0-3-0--|
    . . . . . . . .                     . . . . . . . .

            TIME- 0:19

Fig. 1A x2
e|------------------------------|---------------------------------|
B|------------------------------|---------------------------------|
G|------------------------------|---------------------------------|
D|-----------------------7/8\7--|----------------7/8\7--10/11\10--|
A|--8/9\8--8/9\8--8/9\8--5/6\5--|--8/9\8--8/9\8--5/6\5---8/ 9\ 8--|
E|--6/7\6--6/7\6--6/7\6---------|--6/7\6--6/7\6-------------------|

Riff 2 x2
e|-----------------------------------|-----------------------------------|
B|--------------------------444-333--|-----------------------------------|
G|-----------------------------------|-----------------------------------|
D|----------333-----111-444----------|----------333-------------111------|
A|------111-----444------------------|--444---------444-333---------333--|
E|--222------------------------------|------222-------------111----------|

e|-----------------------------------|------------------------------------|
B|-----------------------------------|------------------------------------|
G|--------------------------333-222--|------------------------------------|
D|----------333-----111-444----------|----------5-4--------------4-3------|
A|------111-----444------------------|--222-555-----6-5--111-444-----5-4--|
E|--222------------------------------|------------------------------------|

            TIME- 0:45

Riff 3 x1
e|-------------------|-------------------|-------------------|
B|-------------------|-------------------|-------------------|
G|-------------------|-------------------|-------------------|
D|-------------------|-------------------|-------------------|
A|----------------3--|-------------------|----------------3--|
E|--1-0-1-3-4-3-2----|--1-0-1-3-4-1-3-0--|--1-0-1-3-4-3-2----|

e|-------------------|-------------------|-------------------|
B|-------------------|-------------------|-------------------|
G|-------------------|-------------------|-------------------|
D|----------2---1----|-------------------|-------------------|
A|------------4---3--|----------------3--|-------------------|
E|--1-0-1-3----------|--1-0-1-3-4-3-2----|--1-0-1-3-4-1-3-0--|

e|-------------------|-------------------|-------------------|
B|-------------------|-------------------|-------------------|
G|-------------------|-------------------|-------------------|
D|-------------------|----5\4---4\3---3--|-------------------|
A|----------------3--|----3\2---2\1---1--|----------------3--|
E|--1-0-1-3-4-3-2----|--0-----0-----0----|--1-0-1-3-4-3-2----|

e|-------------------|-------------------|-------------------|
B|-------------------|-------------------|-------------------|
G|-------------------|-------------------|-------------------|
D|-------------------|-------------------|----------2---1----|
A|-------------------|----------------3--|------------4---3--|
E|--1-0-1-3-4-1-3-0--|--1-0-1-3-4-3-2----|--1-0-1-3----------|

e|-------------------|-------------------|-------------------|
B|-------------------|-------------------|-------------------|
G|-------------------|-------------------|-------------------|
D|-------------------|-------------------|-------------------|
A|----------------3--|-------------------|----------------3--|
E|--1-0-1-3-4-3-2----|--1-0-1-3-4-1-3-0--|--1-0-1-3-4-3-2----|

e|----------------|----------|
B|----------------|----------|
G|----------------|----------|
D|-----------2t3--|-------7--|
A|--4-5--3-4------|--3-4--5--|
E|--2-3-----------|--1-2--5--|

            TIME- 1:08

Riff 4A x3
e|---------------------|-----------------|
B|---------------------|-----------------|
G|---------------------|-----------------|
D|---------------------|-----------------|
A|----------------2-1--|-----------------|
E|--1-0-1-2-3-2-1------|--2-1-2-333-2-0--|

Riff 4B x1
e|---------------------|-----------------|
B|---------------------|-----------------|
G|---------------------|-----------------|
D|---------------------|-----------------|
A|----------------2-1--|--------4p3-5p4--|
E|--1-0-1-2-3-2-1------|--2-1-2----------|

Riff 4A x3
e|---------------------|-----------------|
B|---------------------|-----------------|
G|---------------------|-----------------|
D|---------------------|-----------------|
A|----------------2-1--|-----------------|
E|--1-0-1-2-3-2-1------|--2-1-2-333-2-0--|

Riff 4C x1
e|-------------------|
B|-------------------|
G|-------------------|
D|-------------------|
A|----------------2--|
E|--1-0-1-2-3-2-1----|

Fill 1 x1
e|-------------------|-----------------------------------|
B|-------------------|-----------------------------------|
G|-------------------|-----------------------------------|
D|--7-4-6-5-7-4-6-5--|-----------------------------------|
A|--5-2-4-3-5-2-4-3--|--5-2-322-5-2-322-5-2-322-5-2-322--|
E|--5-2-4-3-5-2-4-3--|-----------------------------------|

            TIME- 1:28

Fig. 2 x2
e|-----------------------------------------|
B|-----------------------------------------|
G|-----------------------------------------|
D|------------------------2h3p2-----1h2p1--|
A|----------2h3p2--------------------------|
E|--2-2-2-2-------4-4-4-4--------4---------|

e|-----------------------------------|
B|-----------------------------------|
G|-----------------------------------|
D|----4-3-----4-3-----3-2------------|
A|----2-1-----2-1-----1-0------------|
E|--2-----2-2-----1-1-----1-3-4-1-2--|

e|-----------------------------------------|
B|-----------------------------------------|
G|-----------------------------------------|
D|------------------------2h3p2-----1h2p1--|
A|----------2h3p2--------------------------|
E|--2-2-2-2-------4-4-4-4--------4---------|

e|-----------------------------------|
B|-----------------------------------|
G|-----------------------------------|
D|--------------------4-3------------|
A|--------3-2------------------------|
E|--1-1-1-----1-1-1-1-----1-3-4-1-2--|

Fill 2
e|-----|-----|
B|-----|-----|
G|-----|-----|
D|--4--|--3--|
A|--4--|--3--|
E|--2--|--1--|

Fig. 1A x1
e|------------------------------|---------------------------------|
B|------------------------------|---------------------------------|
G|------------------------------|---------------------------------|
D|-----------------------7/8\7--|----------------7/8\7--10/11\10--|
A|--8/9\8--8/9\8--8/9\8--5/6\5--|--8/9\8--8/9\8--5/6\5---8/ 9\ 8--|
E|--6/7\6--6/7\6--6/7\6---------|--6/7\6--6/7\6-------------------|

Fig. 1B x1
e|------------------------------|-------------------------------|
B|------------------------------|-------------------------------|
G|------------------------------|-------------------------------|
D|-----------------------7/8\7--|-------------------------------|
A|--8/9\8--8/9\8--8/9\8--5/6\5--|--8/9\8--8/9\8--8t5-----4-5-7--|
E|--6/7\6--6/7\6--6/7\6---------|--6/7\6--6/7\6-----------------|

            TIME- 1:55

Riff 5 x1
e|---------------------------------|-------------------------|
B|---------------------------------|-------------------------|
G|---------------------------------|-------------------------|
D|----------------------------4-3--|-------------------------|
A|----------3---------2-----3------|------2---------3-----4--|
E|--1111111---1111111---111--------|--111---1111111---111----|

e|-------------------------------------------|-----------------|
B|-------------------------------------------|-----------------|
G|-------------------------------------------|-----------------|
D|----------------------------3-2------------|-----------------|
A|----------3---------2-----2---------2------|--4-3-4-5-4->3<--|
E|--1111111---1111111---111-------111---111--|--2-1-2-3-2------|

e|---------------------------------|-------------------------|
B|---------------------------------|-------------------------|
G|---------------------------------|-------------------------|
D|----------------------------4-3--|-------------------------|
A|----------3---------2-----3------|------2---------3-----4--|
E|--1111111---1111111---111--------|--111---1111111---111----|

e|-------------------------------------------|
B|-------------------------------------------|
G|-------------------------------------------|
D|----------------------------3-2------------|
A|----------3---------2-----2---------2------|
E|--1111111---1111111---111-------111---111--|

            TIME- 2:11

Fig. 3 x2
e|--------------------------------------------|--------------------|
B|--------------------------------------------|--------------------|
G|--------------------------------------------|--------------------|
D|--------------------------------------------|------8-8------8-8--|
A|--5-4-5--6-5-6--8-6-5--3-5-4--5-4-5--6-5-6--|------6-6------6-6--|
E|--3-2-3--4-3-4--6-4-3--1-3-2--3-2-3--4-3-4--|--0-0-6-6--0-0-6-6--|
    . . .  . . .  . . .  . . .  . . .  . . .     . .      . .

e|--------------------------------------------|-----------------|
B|--------------------------------------------|-----------------|
G|--------------------------------------------|-----------------|
D|--------------------------------------------|--2----3---5--4--|
A|--5-4-5--6-5-6--8-6-5--3-5-4--5-4-5--6-5-6--|--2----3---3--2--|
E|--3-2-3--4-3-4--6-4-3--1-3-2--3-2-3--4-3-4--|--0----1---3--2--|
    . . .  . . .  . . .  . . .  . . .  . . .

            TIME- 2:36

Riff 6 x2
e|------------------------------------|------------------------------------|
B|------------------------------------|------------------------------------|
G|------------------------------------|------------------------------------|
D|-------------5h6p5------------------|-------------5h6p5------------------|
A|--222222-4-5-----------222-333------|---------4-5-------555---------444--|
E|-------------------222---------444--|--555555---------------222-666------|

e|------------------------------------|-------------------------------------|
B|------------------------------------|-------------------------------------|
G|------------------------------------|-------------------------------------|
D|-------------5h6p5------------------|--------------------666-555----------|
A|--222222-4-5-----------222-333------|---------333-444----------------444--|
E|-------------------222---------444--|--555555---------222--------666------|

            TIME- 2:53

Riff 7 x1
e|-----------------------|-------------------|
B|-----------------------|-------------------|
G|-----------------------|-------------------|
D|-----------------------|-------------------|
A|------5h6p5-----2h3p2--|----------333-222--|
E|--777-------444--------|--111-222----------|

e|-----------------------|-------------------|
B|-----------------------|-------------------|
G|-----------------------|-------------------|
D|-----------------------|-------------------|
A|------5h6p5-----2h3p2--|----------3-0-2----|
E|--777-------444--------|--2-0-1-0-------0--|
                            . . . . . . . .

e|-----------------------|-------------------|
B|-----------------------|-------------------|
G|-----------------------|-------------------|
D|-----------------------|-------------------|
A|------5h6p5-----2h3p2--|----------333-222--|
E|--777-------444--------|--111-222----------|

e|-----------------------|---------------------|
B|-----------------------|---------------------|
G|-----------------------|---------------->5<--|
D|-----------------------|--5-----5--4--4------|
A|------5h6p5-----2h3p2--|--3-----3--2--4------|
E|--777-------444--------|--3--0--3--2--2------|

e|-----------------------|-------------------|
B|-----------------------|-------------------|
G|-----------------------|-------------------|
D|-----------------------|-------------------|
A|------5h6p5-----2h3p2--|----------333-222--|
E|--777-------444--------|--111-222----------|

e|-----------------------|-------------------|
B|-----------------------|-------------------|
G|-----------------------|-------------------|
D|-----------------------|-------------------|
A|------5h6p5-----2h3p2--|----------3-0-2----|
E|--777-------444--------|--2-0-1-0-------0--|
                            . . . . . . . .

e|-----------------------|-------------------|
B|-----------------------|-------------------|
G|-----------------------|-------------------|
D|-----------------------|-------------------|
A|------5h6p5-----2h3p2--|----------333-222--|
E|--777-------444--------|--111-222----------|

e|-----------------------|
B|-----------------------|
G|-----------------------|
D|-----------------------|
A|------5h6p5-----2h3p2--|
E|--777-------444--------|

            TIME- 3:09

Fig. 4 x1
e|----------------------|----------------------|----------------------|
B|----------------------|----------------------|----------------------|
G|----------------------|----------------------|----------------------|
D|--5-----5--4--4-->4<--|--5-----5--4--4-->4<--|--5-----5--4--4-->4<--|
A|--3-----3--2--4-------|--3-----3--2--4-------|--3-----3--2--4-------|
E|--3--0--3--2--2-------|--3--0--3--2--2-------|--3--0--3--2--2-------|

e|---------------------------|
B|---------------------------|
G|---------------------------|
D|--7-6---------6-5----------|
A|------6-5-7-6-----5-4-7-6--|
E|---------------------------|

e|----------------------|----------------------|----------------------|
B|----------------------|----------------------|----------------------|
G|----------------->4<--|----------------------|----------------->4<--|
D|--5-----5--4--4-------|--5-----5--4--4-->4<--|--5-----5--4--4-------|
A|--3-----3--2--4-------|--3-----3--2--4-------|--3-----3--2--4-------|
E|--3--0--3--2--2-------|--3--0--3--2--2-------|--3--0--3--2--2-------|

e|---------------------------|
B|---------------------------|
G|---------------------------|
D|--7-6---------6-5----------|
A|------6-5-7-6-----5-4-7-6--|
E|---------------------------|

e|----------------------|----------------------|----------------------|
B|----------------------|----------------------|----------------------|
G|----------------->5<--|----------------->4<--|----------------->5<--|
D|--5-----5--4--4-------|--5-----5--4--4-------|--5-----5--4--4-------|
A|--3-----3--2--4-------|--3-----3--2--4-------|--3-----3--2--4-------|
E|--3--0--3--2--2-------|--3--0--3--2--2-------|--3--0--3--2--2-------|

e|---------------------------|
B|---------------------------|
G|---------------------------|
D|--7-6---------6-5----------|
A|------6-5-7-6-----5-4-7-6--|
E|---------------------------|

e|----------------------|----------------------|--------------------|
B|----------------------|----------------------|--------------------|
G|----------------------|----------------------|--------------------|
D|--5-----5--4--4-->2<--|--5-----5--4--4-->4<--|--5-----5--4--4--3--|
A|--3-----3--2--4-------|--3-----3--2--4-------|--3-----3--2--4--3--|
E|--3--0--3--2--2-------|--3--0--3--2--2-------|--3--0--3--2--2--1--|

e|---------------------------|
B|---------------------------|
G|---------------------------|
D|--7-6---------6-5----------|
A|------6-5-7-6-----5-4-7-6--|
E|---------------------------|

            TIME- 3:38

Fig. 5 x1
e|-----------------|-------------------|---------------|-------------------|
B|-----------------|-------------------|---------------|-------------------|
G|-----------------|-------------------|---------------|-------------------|
D|----5-4-3h4p3h4--|-------------------|---------------|----------4\3------|
A|--3-3-2----------|----------4-0-3-0--|--3-4-1h2-4h5--|----------2\1-3/4--|
E|--1--------------|--1-0-2-0----------|--1-2----------|--2-0-1-0-----1/2--|

e|-----------|-------------------|---------------|---------------------|
B|-----------|-------------------|---------------|---------------------|
G|-----------|-------------------|---------------|---------------------|
D|--3h4p3h4--|-------------------|---------------|---------------------|
A|-----------|----------4-0-3-0--|--3-4-5p4-1h2--|--------------2-1-4--|
E|-----------|--1-0-2-0----------|--1-2----------|--0-1-4-3-1-2-----2--|

e|-----------------|-------------------|---------------|-------------------|
B|-----------------|-------------------|---------------|-------------------|
G|-----------------|-------------------|---------------|-------------------|
D|----5-4-3h4p3h4--|-------------------|---------------|----------4\3------|
A|--3-3-2----------|----------4-0-3-0--|--3-4-1h2-4h5--|----------2\1-3/4--|
E|--1--------------|--1-0-2-0----------|--1-2----------|--2-0-1-0-----1/2--|

e|-----------|-------------------|---------------|-----------------------|
B|-----------|-------------------|---------------|-----------------------|
G|-----------|-------------------|---------------|-----------------------|
D|--3h4p3h4--|-------------------|---------------|-----------------------|
A|-----------|----------4-0-3-0--|--3-4-5p4-1h2--|--------------2-1-4-3--|
E|-----------|--1-0-2-0----------|--1-2----------|--0-1-4-3-1-2-----2-1--|

            TIME- 3:55

Outro x1
e|-------------------|-------------------|-------------------|
B|-------------------|-------------------|-------------------|
G|-------------------|-------------------|-------------------|
D|-------------------|-------------------|-------------------|
A|------7------------|------5------------|------3------------|
E|--1-0---0-3-0-2-0--|--1-0---0-3-0-2-0--|--1-0---0-3-0-2-0--|

e|---------------|---------------|
B|---------------|---------------|
G|---------------|---------------|
D|---------------|--3-2--2-2--2--|
A|----------2-1--|--3-2--2-2--2--|
E|--1-0-2-3------|--1-0--0-0--0--|

  Visit MetalTabs.com for more metal tablature

bottom separator

Contact Us | Privacy Policy | Disclaimer | Legal Notice
Copyright © 2001-2014 MetalTabs.com. All Rights Reserved.