top separator

Home

Forum

What's New

Submit a Tab

FAQ

Links

Contact Us

Link to Us

MuSpy.com

MetalTabs.com logo

Bands

0-9

A

B

C

D

E

F

G

H

I

J

K

L

M

N

O

P

Q

R

S

T

U

V

W

X

Y

Z

Search

What

Where
 

Alchemist - "Eve Of The War" Guitar Tab

Plain Text Version
More Alchemist Tabs

Hits: 6429
Rated: 3.00 out of 5 (1 vote)
Updated: 2004-08-25 16:04:21

 

By:

Hopkins-WFG

sendpm.gif

email.gif

Important note
This tab is available online because we obtained explicit permission from Alchemist or their label.


#----------------------------------PLEASE NOTE---------------------------------#
#This file is the author's own work and represents their interpretation of the #
#song. You may only use this file for private study, scholarship, or research. #
#Unless specified otherwise, this is NOT an official tab from the band members.#
#------------------------------------------------------------------------------#

  Visit MetalTabs.com for more metal tablature
  
Band:  Alchemist [Australia]
Album: Eve of the War EP
Song:  Eve of the War

Copyright (c) Relapse Records 1998
Version 1.0 - 25/08/04

Transcribed By: Impaler/Hopkins-WFG
E mail: brokenshaw@yahoo.com/teh_impaler@hotmail.com



.  - palm mute           /  - slide up to
\  - slide down to       ~  - vibrato
h  - hammer on           b  - Bend
p  - pull off            Suffixes for bend
t  - tap                 f  - full bend    h - half bend
ph - pinched harmonic    q  - quarter bend t - tap bend
*  - see comment         ^  - Hold bend    r release bend
x  - Stuccatto           ~  - vibrato bend
,  - slight palm mute    () - ghost note, sustained note
"  - tremolo note        <> - Trill

Tunning C F A# D# G C


[Synth Intro]

[Verse I]
C ||-----------------------|----------------------------|
G ||-----------------------|----------------------------|
D#||*----------------------|----------------------------|
A#||*--6----6----4---------|--4--4-4-4--4--4--4-4-4--4--|
F ||---4----4----2---------|--2--2-2-2--2--2--2-2-2--2--|
C ||-----------------------|----------------------------|

|--------------------------|---------------------------||
|--------------------------|---------------------------||
|--------------------------|--------------------------*||
|--------------------------|--------------------------*||
|--9----9----7-------------|-7--7-7-7--7--7--7-7-7--7--||
|--7----7----5-------------|-5--5-5-5--5--5--5-5-5--5--||

|--------------------------|----------------------------|
|--------------------------|----------------------------|
|--------------------------|----------------------------|
|--------------------------|----------------------------|
|--9----7----4-------------|--4--4-4-4--4--4--4-4-4--4--|
|--7----5----2-------------|--2--2-2-2--2--2--2-2-2--2--|


Verse II

|--------------------------|----------------------------|
|--------------------------|----------------------------|
|*-------------------------|----------------------------|
|*--6----6----4------------|--4--4-4-4--4--4--4-4-4--4--|
|---4----4----2------------|--2--2-2-2--2--2--2-2-2--2--|
|--------------------------|----------------------------|

|--------------------------|--7-9-10----7-9-10----------|
|--------------------------|----------------------------|
|*-------------------------|----------------------------|
|*--6----6----4------------|----------------------------|
|---4----4----2------------|----------------------------|
|--------------------------|----------------------------|


|-------------------------|----------------------------||
|-------------------------|----------------------------||
|-------------------------|---------------------------*||
|-------------------------|---------------------------*||
|--9----9----7------------|--7--7-7-7--7--7--7-7-7--7--||
|--7----7----5------------|--5--5-5-5--5--5--5-5-5--5--||

|-------------------------|--5-7-9----5-7-9-------------|
|-------------------------|-----------------------------|
|-------------------------|----------------------------*|
|-------------------------|----------------------------*|
|--9----9----7------------|-----------------------------|
|--7----7----5------------|-----------------------------|


|-------------------------|-----------------------------|
|-------------------------|-----------------------------|
|-------------------------|-----------------------------|
|-------------------------|-----------------------------|
|--9----7----4------------|--4--4-4-4--4--4--4-4-4--4---|
|--7----5----2------------|--2--2-2-2--2--2--2-2-2--2---|

[Bridge I]
|---------------------|-------------|--------------|----|
|---------------------|-------------|--------------|----|
|---------------------|-------------|--------------|----|
|--4---------2--------|-----(2)-----|--------------|----|
|-------5-------------|---------2-4-|--5----7----4-|(4)-|
|---------------------|-------------|--------------|----|


[Verse III]
1st
G------------------------|---------------------------|
U------------------------|---------------------------|
I*-----------------------|---------------------------|
T*--6----6----4----------|--4--4-4-4--4--4--4-4-4--4-|
A---4----4----2----------|--2--2-2-2--2--2--2-2-2--2-|
R------------------------|---------------------------|
2nd
G------------------------|--7-9-10----7-9-10---------|
U------------------------|---------------------------|
I*-----------------------|---------------------------|
T*--6----6----4----------|---------------------------|
A---4----4----2----------|---------------------------|
R------------------------|---------------------------|

1st
G------------------------|--------------------------||
U------------------------|--------------------------||
I------------------------|-------------------------*||
T------------------------|-------------------------*||
A--9----9----7-----------|-7--7-7-7--7--7--7-7-7--7-||
R--7----7----5-----------|-5--5-5-5--5--5--5-5-5--5-||
2nd
G------------------------|--5-7-9----5-7-9-----------|
U------------------------|---------------------------|
I------------------------|--------------------------*|
T------------------------|--------------------------*|
A--9----9----7-----------|---------------------------|
R--7----7----5-----------|---------------------------|

Both
G------------------------|------------------|------------------|
U------------------------|------------------|------------------|
I------------------------|------------------|------------------|
T------------------------|------------------|------------------|
A--9----7----4--------2--|--4----2--4----2--|--4--2--4--2--4---|
R--7----5----2--------0--|--2----0--2----0--|--2--0--2--0--2---|


[Bridge II]
|----------------|---------------|------------------|--10---12-|
|----------------|---------------|------------------|----------|
|----------------|---------------|------------------|----------|
|--4---------2---|-------(2)-----|------------------|----------|
|-------5--------|-----------2-4-|--5----7----4-----|----------|
|----------------|---------------|------------------|----------|

[Repeat Verse III]

[Interlude x2] W/Slide
|------------------|---------|---------|
|---5----12------19|---------|-----(19)|
|------------------|---------|---------|
|------------------|---------|---------|
|------------------|---------|---------|
|------------------|---------|---------|

|------------------|---------|---------|
|---7----14------22|---------|-----(22)|
|------------------|---------|---------|
|------------------|---------|---------|
|------------------|---------|---------|
|------------------|---------|---------|


[Refrain I]
|----------------------------------|
|----------------------------------|
|----------------------------------|
|----------------------------------|
|--2-2-2-2-2-2-2-2-2-2-2-2-2-2-2-2-|
|--0-0-0-0-0-0-0-0-0-0-0-0-0-0-0-0-|

|----------------------------------|----------------------------------|
|----------------------------------|----------------------------------|
|----------------------------------|----------------------------------|
|----------------------------------|--7-7-7-7-7-7-7-7-7-7-7-7---------|
|--4-4-4-4-4-4-4-4-4-4-4-4-4-4-4-4-|--5-5-5-5-5-5-5-5-5-5-5-5-7-7-7-7-|
|--2-2-2-2-2-2-2-2-2-2-2-2-2-2-2-2-|--------------------------5-5-5-5-|

|----------------|-----------------|----------------------------------|
|----------------|-----------------|----------------------------------|
|----------------|-----------------|----------------------------------|
|----------------|-----------------|----------------------------------|
|--4-------2--4--|--2--4-----2--4--|--2-2-2-2-2-2-2-2-2-2-2-2-2-2-2-2-|
|--2-------0--2--|--0--2-----0--2--|--0-0-0-0-0-0-0-0-0-0-0-0-0-0-0-0-|

|----------------------------------|----------------------------------|
|----------------------------------|----------------------------------|
|----------------------------------|----------------------------------|
|----------------------------------|--7-7-7-7-7-7-7-7-7-7-7-7---------|
|--4-4-4-4-4-4-4-4-4-4-4-4-4-4-4-4-|--5-5-5-5-5-5-5-5-5-5-5-5-7-7-7-7-|
|--2-2-2-2-2-2-2-2-2-2-2-2-2-2-2-2-|--------------------------5-5-5-5-|

|----------------|-----------------|
|----------------|-----------------|
|----------------|-----------------|
|--9-------------|-------------(9)-|
|--7-------------|-------------(7)-|
|----------------|-----------------|

[Repeat Verse II]

[Repeat Bridge I]

[Repeat Verse III]

[Repeat Bridge II]

[Repeat Verse III]

[Repeat Interlude]

[Refrain II]
1st
G----------------------------------|----------------------------------|
U----------------------------------|----------------------------------|
I----------------------------------|----------------------------------|
T----------------------------------|----------------------------------|
A--2-2-2-2-2-2-2-2-2-2-2-2-2-2-2-2-|--4-4-4-4-4-4-4-4-4-4-4-4-4-4-4-4-|
R--0-0-0-0-0-0-0-0-0-0-0-0-0-0-0-0-|--2-2-2-2-2-2-2-2-2-2-2-2-2-2-2-2-|
2nd
G--14--16-----12--14--16----12-----|--14--16--12--14----------14-16---|
U----------------------------------|----------------------------------|
I----------------------------------|----------------------------------|
T----------------------------------|----------------------------------|
A----------------------------------|----------------------------------|
R----------------------------------|----------------------------------|

1st
G----------------------------------|---------------|------------------|
U----------------------------------|---------------|------------------|
I----------------------------------|---------------|------------------|
T--7-7-7-7-7-7-7-7-7-7-7-7---------|---------------|------------------|
A--5-5-5-5-5-5-5-5-5-5-5-5-7-7-7-7-|--4-----2--4---|--2--4----2--4----|
R--------------------------5-5-5-5-|--2-----0--2---|--0--2----0--2----|
2nd
G--17--16------14--10--14-------9--|---------------|--17--------------|
U----------------------------------|---------------|------------------|
I----------------------------------|---------------|------------------|
T----------------------------------|---------------|------------------|
A----------------------------------|---------------|------------------|
R----------------------------------|---------------|------------------|

1st
G----------------------------------|----------------------------------|
U----------------------------------|----------------------------------|
I----------------------------------|----------------------------------|
T----------------------------------|----------------------------------|
A--2-2-2-2-2-2-2-2-2-2-2-2-2-2-2-2-|--4-4-4-4-4-4-4-4-4-4-4-4-4-4-4-4-|
R--0-0-0-0-0-0-0-0-0-0-0-0-0-0-0-0-|--2-2-2-2-2-2-2-2-2-2-2-2-2-2-2-2-|
2nd
G--14--16-----12--14--16-----12----|--14--16--12--14-----------14-16--|
U----------------------------------|----------------------------------|
I----------------------------------|----------------------------------|
T----------------------------------|----------------------------------|
A----------------------------------|----------------------------------|
R----------------------------------|----------------------------------|

1st
G----------------------------------|-------------------|--------------|
U----------------------------------|-------------------|--------------|
I----------------------------------|-------------------|--------------|
T--7-7-7-7-7-7-7-7-7-7-7-7---------|--9----------------|--------------|
A--5-5-5-5-5-5-5-5-5-5-5-5-7-7-7-7-|--7----------------|--------------|
R--------------------------5-5-5-5-|-------------------|--------------|
2nd
G--17--16----14--14----------17----|--16---------------|--17----------|
U----------------------------------|-------------------|--------------|
I----------------------------------|-------------------|--------------|
T----------------------------------|-------------------|--------------|
A----------------------------------|-------------------|--------------|
R----------------------------------|-------------------|--------------|


[Bridge Riff]
|-----------------------------|--------------------------------|
|-----------------------------|--------------------------------|
|-----------------------------|--------------------------------|
|-----------------------------|--------------------------------|
|-2-2-4--2-2-4--2-2-4--2-2-4--|--2-2-4--2-2-4--2-2-4-4-4-4-4-4-|
|-0-0-2--0-0-2--0-0-2--0-0-2--|--0-0-2--0-0-2--0-0-2-2-2-2-2-2-|


[Repeat Refrain II]


[Outro]
|-------------------------|------------------|-----------------|
|-------------------------|------------------|-----------------|
|-------------------------|------------------|-----------------|
|--6----6----4------------|--------------(4)-|-----------------|
|--4----4----2------------|--------------(2)-|--9----9----7----|
|-------------------------|------------------|--7----7----5----|

|------------------|-------------------------|-----------------|
|------------------|-------------------------|-----------------|
|------------------|-------------------------|-----------------|
|------------------|--6----6----4------------|-------------(4)-|
|--------------(7)-|--4----4----2------------|-------------(2)-|
|--------------(5)-|-------------------------|-----------------|

|------------------|-------------------------|-----------------|
|------------------|-------------------------|-----------------|
|------------------|-------------------------|-----------------|
|------------------|-------------------------|-----------------|
|--9----7----4-----|--2--4------2--4---------|-2--4--2--4--2--4|
|--7----5----2-----|--0--2------0--2---------|-0--2--0--2--0--2|

|--------------|---------------|---------------|---------------|
|--------------|---------------|---------------|---------------|
|--------------|---------------|---------------|---------------|
|--------------|---------------|---------------|---------------|
|-(4)----------|-(4)-----------|-(4)-----------|-(4)-----------|
|-(2)----------|-(2)-----------|-(2)-----------|-(2)-----------|

|------------------|------------------||
|------------------|------------------||
|------------------|------------------||
|------------------|------------------||
|-(4)--------------|-(4)--------------||
|-(2)--------------|-(2)--------------||

|---------------The End----------------|

  Visit MetalTabs.com for more metal tablature

bottom separator

Contact Us | Privacy Policy | Disclaimer | Legal Notice
Copyright © 2001-2014 MetalTabs.com. All Rights Reserved.