top separator

Home

Forum

FAQ

Contact Us

Link to Us

MetalTabs.com logo

Bands

0-9

A

B

C

D

E

F

G

H

I

J

K

L

M

N

O

P

Q

R

S

T

U

V

W

X

Y

Z

Cradle of Filth - "From the Cradle to Enslave" Guitar Tab

Plain Text Version
More Cradle of Filth Tabs

Hits: 8199
Rated: 3.78 out of 5 (9 votes)
Updated: 2004-08-25 15:58:43

By:


#----------------------------------PLEASE NOTE---------------------------------#
#This file is the author's own work and represents their interpretation of the #
#song. You may only use this file for private study, scholarship, or research. #
#Unless specified otherwise, this is NOT an official tab from the band members.#
#------------------------------------------------------------------------------#

  Visit MetalTabs.com for more metal tablature
  
Band: Cradle of Filth
Album: From the Cradle To Enslave EP
Song: From the Cradle Enslave
Transcribed By: Dark Immortal Screams
Email:  www.curiwesg707@hotmail.com
Copyright: Metal Blade Records

Main riff 1   2 times           ~ = let ring

  Guitar 1
d|--0----------0---3---0------8-7~---8-7----8-7-----8-7----|
A|--------4------------------------------8------8-------8--|
F|/////////////////////////////////////////////////////////|
C|/////////////////////////////////////////////////////////|
G|---------------------------------------------------------|
D|---------------------------------------------------------|
  /= pick
     slide

Guitar 2
d|-----------------------------------------------|
A|-----------------------------------------------|
F|-----------------------------------------------|
C|-------2--------5--------3--------2------------|
G|-------2--------5--------1--------0------------|
D|-------0--------3------------------------------|

You can use tremolo picking on guitar 2

Guitar 1
d|--0----------0---3---0------8-7~---8-7~------------------|
A|--------4------------------------------------------------|
F|---------------------------------------------------------|
C|---------------------------------------------------------|
G|---------------------------------------------------------|
D|---------------------------------------------------------|


Guitar 2
d|-----------------------------------------------|
A|-----------------------------------------------|
F|-----------------------------------------------|
C|-------2--------5--------5--------4------------|
G|-------2--------5--------3--------2------------|
D|-------0--------3------------------------------|

2 Times

d|------------------------------------------|
A|------------------------------------------|
F|------------------------------------------|
C|--2-2-2-5~---5-4-3---2-2-2-6~---6-5-4---|  Both Guitars
G|--2-2-2-5~---5-4-3---2-2-2-6~---6-5-4---|
D|--0-0-0-3~---3-2-1---0-0-0-4~---4-3-2---|
pm    . .                 . .



2 Times

d|------------------------------------------|
A|------------------------------------------|
F|--2-4---------6-7-------------------------|
C|--0-2---------4-5-----------4tr5----------|
G|------------------------------------------|
D|------0000000------0000000----------------|
 pm     .......      .......



d|------------------------------------------|
A|------------------------------------------|
F|--2-4---------7-6-------------------------|
C|--0-2---------5-4-------------------------|
G|------------------------------------------|
D|------0000000------0000000-----5tr6-------|
 pm     .......      .......


2 Times  or you can play in like this


d|---------------------------------------------|
A|---------------------------------------------|
F|--7--9--------11-12--------------------------|
C|--7--9--------11-12-----------4tr5-----------|
G|--5--7---------9-10--------------------------|
D|------0000000---------0000000----------------|
 pm     .......         .......


d|---------------------------------------------|
A|---------------------------------------------|
F|--7--9---------12-11-------------------------|
C|--7--9---------12-11-------------------------|
G|--5--7---------10-9--------------------------|
D|------0000000---------0000000---5tr6---------|
 pm     .......         .......


d|------------------------------------------|
A|------------------------------------------|
F|------------------------------------------|
C|--2-2-2-5~---5-4-3---2-2-2-6~---6-5-4---|  Both Guitars
G|--2-2-2-5~---5-4-3---2-2-2-6~---6-5-4---|
D|--0-0-0-3~---3-2-1---0-0-0-4~---4-3-2---|
pm    . .                 . .


  Guitar 1

d|--0----------0---3---0------8-7~---8-7----8-7-----8-7----|
A|--------4------------------------------8------8-------8--|
F|---------------------------------------------------------|
C|---------------------------------------------------------|
G|---------------------------------------------------------|
D|---------------------------------------------------------|

Guitar 2

d|-----------------------------------------------|
A|-----------------------------------------------|
F|-----------------------------------------------|
C|-------2--------5--------3--------2------------|
G|-------2--------5--------1--------0------------|
D|-------0--------3------------------------------|


Guitar 1
d|--0----------0---3---0------8-7~---8-7~------------------|
A|--------4------------------------------------------------|
F|---------------------------------------------------------|
C|---------------------------------------------------------|
G|---------------------------------------------------------|
D|---------------------------------------------------------|


Guitar 2
d|-----------------------------------------------|
A|-----------------------------------------------|
F|-----------------------------------------------|
C|-------2--------5--------5--------4------------|
G|-------2--------5--------3--------2------------|
D|-------0--------3------------------------------|


G|-12-|   Slide up
D|-10-|

After the part of violins there is a pick slide

F|/////////////////////////////////////////////////////////|



3 Times (you can use tremolo picking)
d|-----------------------------------------------------|
A|-----------------------------------------------------|
F|-----------------------------------------------------|
C|-7--3-3----7---3-1--6-6---7---3-1----7--6-6--9-9----| Both Guitars
G|-5---1-1----5---3-1--4-4---5---3-1----5--4-4--7-7----|
D|-----------------------------------------------------|

Then this 3 Times

d|-----------------------------------------------------|
A|-----------------------------------------------------|
F|-----------------------------------------------------|
C|-8--4-4----8---4-4-7-7---8---4-4----8--7-7--10-10--| Both Guitars
G|-6---2-2----6---2-2--5-5---6---2-2----6--5-5---8--8--|
D|-----------------------------------------------------|


Solo

d|---------------------------------------------------------|
A|---------------------------------------------------------|
F|-----15-15---16-15------15-15--14-14-------15-15---------|
C|-13-----------------13-----------------13----------------|
G|---------------------------------------------------------|
D|---------------------------------------------------------|

d|---------------------------------------------------------|
A|----17--20-20--17-17--20-20--19-19~----------------------|
F|---------------------------------------------------------|
C|---------------------------------------------------------|
G|---------------------------------------------------------|
D|---------------------------------------------------------|


Guitar 1

d|--0----------0---3---0------8-7~---8-7----8-7-----8-7----|
A|--------4------------------------------8------8-------8--|
F|---------------------------------------------------------|
C|---------------------------------------------------------|
G|---------------------------------------------------------|
D|---------------------------------------------------------|

Guitar 2

d|-----------------------------------------------|
A|-----------------------------------------------|
F|-----------------------------------------------|
C|-------2--------5--------3--------2------------|
G|-------2--------5--------1--------0------------|
D|-------0--------3------------------------------|


Guitar 1

d|--0----------0---3---0------8-7~---8-7~------------------|
A|--------4------------------------------------------------|
F|---------------------------------------------------------|
C|---------------------------------------------------------|
G|---------------------------------------------------------|
D|---------------------------------------------------------|


Guitar 2

d|-----------------------------------------------|
A|-----------------------------------------------|
F|-----------------------------------------------|
C|-------2--------5--------5--------4------------|
G|-------2--------5--------3--------2------------|
D|-------0--------3------------------------------|


End

C|-2~-|
G|-2~-|
D|-0~-|

This is the closest tab for this song _\m/Cradle of Filth Rocks\m/_

  Visit MetalTabs.com for more metal tablature

bottom separator

Contact Us | Privacy Policy | Disclaimer
Copyright © 2001-2014 MetalTabs.com. All Rights Reserved.