top separator

Home

Forum

What's New

Submit a Tab

FAQ

Links

Contact Us

Link to Us

MuSpy.com

MetalTabs.com logo

Bands

0-9

A

B

C

D

E

F

G

H

I

J

K

L

M

N

O

P

Q

R

S

T

U

V

W

X

Y

Z

Search

What

Where
 

Cirith Gorgor - "Winter Embraces Lands Beyond" Guitar Tab

Plain Text Version
More Cirith Gorgor Tabs

Hits: 3258
Rated: 5.00 out of 5 (3 votes)
Updated: 2004-08-24 16:16:16

 

By:

Asmoday

sendpm.gif

email.gif

Important note
This tab is available online because we obtained explicit permission from Cirith Gorgor or their label.


#----------------------------------PLEASE NOTE---------------------------------#
#This file is the author's own work and represents their interpretation of the #
#song. You may only use this file for private study, scholarship, or research. #
#Unless specified otherwise, this is NOT an official tab from the band members.#
#------------------------------------------------------------------------------#

  Visit MetalTabs.com for more metal tablature
  
Band:  Cirith Gorgor
Album: Onwards to the Spectral Defile
Song:  Winter Embraces Lands Beyond

Copyright (c)  Osmose Productions 1999

Transcribed By: Asmoday
Email:          Corpse_candle@hotmail.com


Tuning D G C F A D

Intro (5x) (Other guitar plays powerchords)
|----------------|----------------|----------------|----------------|
|----0-------0---|----0-------0---|----0-------0---|----0-------0---|
|--5---5---5---5-|--5---5---5---5-|--5---5---5---5-|--5---5---5---0-|
|7-------7-------|5-------5-------|3-------3-------|5-------5-------|
|----------------|----------------|----------------|----------------|
|----------------|----------------|----------------|----------------|

Intro, solo part (4x) (Solo tabs are below)
|----------------|----------------|----------------|----------------|
|----------------|----------------|----------------|----------------|
|5-5-5-5-5-5-5-5-|5-5-5-5-5-5-5-5-|5-5-5-5-5-5-5-5-|5-5-5-5-4-4-4-4-|
|7-7-7-7-7-7-7-7-|5-5-5-5-5-5-5-5-|3-3-3-3-3-3-3-3-|5-5-5-5-5-5-5-5-|
|----------------|----------------|----------------|----------------|
|----------------|----------------|----------------|----------------|

Riff 1 (6x)
|----------------|----------------|----------------|----------------|
|----------------|----------------|----------------|----------------|
|----------------|----------------|----------------|----------------|
|----------------|------3322220000|----------------|----33----------|
|------2233553322|----------------|------2233553322|------3355332233|
|555555----------|333333----------|555555----------|1111------------|

Riff 2 (2x)
|----------------|----------------|----------------|----------------|
|----------------|----------------|----------------|----------------|
|----------------|----------------|5555555577775555|4444444444444444|
|----------------|----------------|3333333355553333|2222222222222222|
|7777777788888888|7777777777777777|----------------|----------------|
|5555555555555555|0000000000000000|----------------|----------------|

|----------------|----------------|----------------|----------------|
|----------------|----------------|----------------|------665533----|
|----------------|----------------|5555555577775555|444444------554-|
|----------------|----------------|3333333355553333|222222----------|
|7777777788888888|7777777777777777|----------------|----------------|
|5555555555555555|0000000000000000|----------------|----------------|

Riff 3 (4x)
|----------------|----------------|----------------|----------------|
|----------------|----------------|----------------|----------------|
|----------------|------1210109-9-|1212121210109-9-|10109-9-7-7-9-9-|
|1010101012121010|9-9-9-9-9-9-9-9-|1010101010101010|121210109-9-1010|
|1212121212121212|1010101010101010|----------------|----------------|
|----------------|----------------|----------------|----------------|
on the album this riff is played by 2 separate guitars but it can also
be done by one guitar.


Then back to Riff 2 (2x), followed by Riff 1 (4x)


Riff 4A (3x)(first time play slow, alternate 5th & 4th string)
|----------------|----------------|----------------|----------------|
|----------------|----------------|----------------|----------------|
|----------------|----------------|----------------|----------------|
|9-9-9-9-9-9-9-9-|1010101010101010|1010101010101010|9-9-9-1212129-9-|
|0-0-0-0-0-0-0-0-|0-0-0-0-0-0-0-0-|8-8-8-8-8-8-8-8-|1010101010101010|
|----------------|----------------|----------------|----------------|


|----------------|----------------|----------------|----------------|
|----------------|----------------|----------------|----------------|
|----------------|----------------|--------1010----|----------------|
|9-9-9-9-9-9-9-9-|1010101010101010|10101010----1010|14--12--10--9---|
|0-0-0-0-0-0-0-0-|0-0-0-0-0-0-0-0-|8-8-------------|12--10--8---7---|
|----------------|----------------|----------------|----------------|


Riff 4B (2x)
|----------------|----------------|----------------|----------------|
|----------------|----------------|----------------|----------------|
|9-9-9-9-9-9-9-9-|1010101010101010|1010101010101010|9-9-9-1212129-9-|
|0-0-0-0-0-0-0-0-|0-0-0-0-0-0-0-0-|8-8-8-8-8-8-8-8-|1010101010101010|
|----------------|----------------|----------------|----------------|
|----------------|----------------|----------------|----------------|



|----------------|----------------|----------------|----------------|
|----------------|----------------|--------1111----|----------------|
|9-9-9-9-9-9-9-9-|1010101010101010|10101010----1010|14-12-10-9---|
|0-0-0-0-0-0-0-0-|0-0-0-0-0-0-0-0-|8-8-------------|12-10-8---7---|
|----------------|----------------|----------------|----------------|
|----------------|----------------|----------------|----------------|

Riff 5 (4x)
|----------------|----------------|
|----------------|--------7-7-7-7-|
|7-7-7-5-7-7-8-8-|7-7-5-5-5-5-5-5-|
|0-0-0-0-0-0-0-0-|0-0-0-0-0-0-0-0-|
|----------------|----------------|
|----------------|----------------|


Then back to riff 4B (2x), followed by Riff 4A (2x)

Back to Riff 1 (4x)

Outro 1st part (2x) (other guitar plays powerchords again)
|----------------|----------------|----------------|----------------|
|----0-------0---|----0-------0---|----0-------0---|----0-------0---|
|--5---5---5---5-|--5---5---5---5-|--5---5---5---5-|--5---5---5---0-|
|7-------7-------|5-------5-------|3-------3-------|5-------5-------|
|----------------|----------------|----------------|----------------|
|----------------|----------------|----------------|----------------|




Outro 2nd part (4x) (Other guitar plays Intro, solo part)
|----------------|----------------|----------------|----------------|
|----0-------6-5-|----0---8-6865--|----0-----------|----0-----------|
|--5---5---5-----|--5---5-------7-|--5---5---5/7-5-|--4---5/7---5-4-|
|7-------7-------|5---------------|3-------3-------|5---------------|
|----------------|----------------|----------------|----------------|
|----------------|----------------|----------------|----------------|
                             hpp


solo
|----------------|----------------|----------------|----------------|
|----------------|----------------|----------------|----------------|
|----------------|----------------|--------9-----7910---9-7-9--10-9-|
|7-----7910---91012-10-91097-9-7-5|7-----79--------|----------------|
|----------------|----------------|----------------|----------------|
|----------------|----------------|----------------|----------------|
        h  h   h h       hp               h       h h

|----------------|----------------|----------------|----------------|
|10--101213-121315-13-121312101210810----8---------|--------6-8-6865|
|----------------|----------------|-----------10---|9--7--9---------|
|----------------|----------------|----------------|----------------|
|----------------|----------------|----------------|----------------|
|----------------|----------------|----------------|----------------|
        h h    h h       h p p                                   hpp

|----------------|----------------|----------------|----------------|
|7-----5-----4545/10----9-----7979/12----10---9109\\7----9-10-9-797\5
|----------------|----------------|----------------|----------------|
|----------------|----------------|----------------|----------------|
|----------------|----------------|----------------|----------------|
|----------------|----------------|----------------|----------------|
              hph              hph              hp               hp

|----------------|----------------|----------------|----------------|
|7-----5-----4545/10----9-----7979/12----10----9109|7----9-1097-7---|
|----------------|----------------|----------------|-----------101097
|----------------|----------------|----------------|----------------|
|----------------|----------------|----------------|----------------|
|----------------|----------------|----------------|----------------|
              hph              hph              h p          pph   p


END

  Visit MetalTabs.com for more metal tablature

bottom separator

Contact Us | Privacy Policy | Disclaimer | Legal Notice
Copyright © 2001-2014 MetalTabs.com. All Rights Reserved.